  0
SECTION
  2
HEADER
  9
$ACADVER
  1
AC1009
  9
$INSBASE
 10
0.0
 20
0.0
 30
0.0
  9
$EXTMIN
 10
12.679912659999999
 20
11.71304628333333
 30
0.0
  9
$EXTMAX
 10
25.145842649999992
 20
23.468980680000001
 30
0.0
  9
$LIMMIN
 10
0.0
 20
0.0
  9
$LIMMAX
 10
0.0
 20
0.0
  9
$ORTHOMODE
 70
     0
  9
$REGENMODE
 70
     1
  9
$FILLMODE
 70
     1
  9
$QTEXTMODE
 70
     0
  9
$MIRRTEXT
 70
     1
  9
$DRAGMODE
 70
     2
  9
$LTSCALE
 40
1.0
  9
$OSMODE
 70
    37
  9
$ATTMODE
 70
     1
  9
$TEXTSIZE
 40
0.0
  9
$TRACEWID
 40
0.05
  9
$TEXTSTYLE
  7
STANDARD
  9
$CLAYER
  8
0
  9
$CELTYPE
  6
CONTINUOUS
  9
$CECOLOR
 62
   256
  9
$DIMSCALE
 40
1.0
  9
$DIMASZ
 40
0.18
  9
$DIMEXO
 40
0.0625
  9
$DIMDLI
 40
0.38
  9
$DIMRND
 40
0.0
  9
$DIMDLE
 40
0.0
  9
$DIMEXE
 40
0.18
  9
$DIMTP
 40
0.0
  9
$DIMTM
 40
0.0
  9
$DIMTXT
 40
0.18
  9
$DIMCEN
 40
0.09
  9
$DIMTSZ
 40
0.0
  9
$DIMTOL
 70
     0
  9
$DIMLIM
 70
     0
  9
$DIMTIH
 70
     1
  9
$DIMTOH
 70
     1
  9
$DIMSE1
 70
     0
  9
$DIMSE2
 70
     0
  9
$DIMTAD
 70
     0
  9
$DIMZIN
 70
     0
  9
$DIMBLK
  1

  9
$DIMASO
 70
     1
  9
$DIMSHO
 70
     1
  9
$DIMPOST
  1

  9
$DIMAPOST
  1

  9
$DIMALT
 70
     0
  9
$DIMALTD
 70
     2
  9
$DIMALTF
 40
25.399999999999999
  9
$DIMLFAC
 40
1.0
  9
$DIMTOFL
 70
     0
  9
$DIMTVP
 40
0.0
  9
$DIMTIX
 70
     0
  9
$DIMSOXD
 70
     0
  9
$DIMSAH
 70
     0
  9
$DIMBLK1
  1

  9
$DIMBLK2
  1

  9
$DIMSTYLE
  2
STANDARD
  9
$DIMCLRD
 70
     0
  9
$DIMCLRE
 70
     0
  9
$DIMCLRT
 70
     0
  9
$DIMTFAC
 40
1.0
  9
$DIMGAP
 40
0.09
  9
$LUNITS
 70
     2
  9
$LUPREC
 70
     3
  9
$SKETCHINC
 40
0.1
  9
$FILLETRAD
 40
0.0
  9
$AUNITS
 70
     0
  9
$AUPREC
 70
     0
  9
$MENU
  1
acad
  9
$ELEVATION
 40
0.0
  9
$PELEVATION
 40
0.0
  9
$THICKNESS
 40
0.0
  9
$LIMCHECK
 70
     0
  9
$BLIPMODE
 70
     0
  9
$CHAMFERA
 40
0.0
  9
$CHAMFERB
 40
0.0
  9
$SKPOLY
 70
     0
  9
$TDCREATE
 40
2452927.4476853008
  9
$TDUPDATE
 40
2452927.4480934022
  9
$TDINDWG
 40
0.0005282407
  9
$TDUSRTIMER
 40
0.0005256944
  9
$USRTIMER
 70
     1
  9
$ANGBASE
 50
0.0
  9
$ANGDIR
 70
     0
  9
$PDMODE
 70
     2
  9
$PDSIZE
 40
-2.0
  9
$PLINEWID
 40
0.0
  9
$COORDS
 70
     1
  9
$SPLFRAME
 70
     0
  9
$SPLINETYPE
 70
     6
  9
$SPLINESEGS
 70
     8
  9
$ATTDIA
 70
     0
  9
$ATTREQ
 70
     1
  9
$HANDLING
 70
  4097
  9
$HANDSEED
  5
1E6
  9
$SURFTAB1
 70
     6
  9
$SURFTAB2
 70
     6
  9
$SURFTYPE
 70
     6
  9
$SURFU
 70
     6
  9
$SURFV
 70
     6
  9
$UCSNAME
  2

  9
$UCSORG
 10
0.0
 20
0.0
 30
0.0
  9
$UCSXDIR
 10
1.0
 20
0.0
 30
0.0
  9
$UCSYDIR
 10
0.0
 20
1.0
 30
0.0
  9
$PUCSNAME
  2

  9
$PUCSORG
 10
0.0
 20
0.0
 30
0.0
  9
$PUCSXDIR
 10
1.0
 20
0.0
 30
0.0
  9
$PUCSYDIR
 10
0.0
 20
1.0
 30
0.0
  9
$USERI1
 70
     0
  9
$USERI2
 70
     0
  9
$USERI3
 70
     0
  9
$USERI4
 70
     0
  9
$USERI5
 70
     0
  9
$USERR1
 40
0.0
  9
$USERR2
 40
0.0
  9
$USERR3
 40
0.0
  9
$USERR4
 40
0.0
  9
$USERR5
 40
0.0
  9
$WORLDVIEW
 70
     1
  9
$SHADEDGE
 70
     3
  9
$SHADEDIF
 70
    70
  9
$TILEMODE
 70
     1
  9
$MAXACTVP
 70
    16
  9
$PLIMCHECK
 70
     0
  9
$PEXTMIN
 10
1.0000000000000000E+020
 20
1.0000000000000000E+020
 30
1.0000000000000000E+020
  9
$PEXTMAX
 10
-1.0000000000000000E+020
 20
-1.0000000000000000E+020
 30
-1.0000000000000000E+020
  9
$PLIMMIN
 10
0.0
 20
0.0
  9
$PLIMMAX
 10
12.0
 20
9.0
  9
$UNITMODE
 70
     0
  9
$VISRETAIN
 70
     0
  9
$PLINEGEN
 70
     1
  9
$PSLTSCALE
 70
     0
  0
ENDSEC
  0
SECTION
  2
TABLES
  0
TABLE
  2
VPORT
 70
     2
  0
VPORT
  2
*ACTIVE
 70
     0
 10
0.0
 20
0.0
 11
1.0
 21
1.0
 12
22.778778759034019
 22
17.67434634
 13
0.0
 23
0.0
 14
1.0
 24
1.0
 15
0.0
 25
0.0
 16
0.0
 26
0.0
 36
1.0
 17
0.0
 27
0.0
 37
0.0
 40
11.93694674
 41
1.723364485981308
 42
50.0
 43
0.0
 44
0.0
 50
0.0
 51
0.0
 71
     0
 72
   100
 73
     1
 74
     1
 75
     0
 76
     0
 77
     0
 78
     0
  0
ENDTAB
  0
TABLE
  2
LTYPE
 70
     2
  0
LTYPE
  2
CONTINUOUS
 70
     0
  3
Solid line
 72
    65
 73
     0
 40
0.0
  0
LTYPE
  2
DOTD
 70
     0
  3
        .  .  .  .  .  .  .  .  .  .  .  .  .  .  .  .
 72
    65
 73
     2
 40
0.125
 49
0.0
 49
-0.125
  0
ENDTAB
  0
TABLE
  2
LAYER
 70
     2
  0
LAYER
  2
0
 70
     0
 62
    12
  6
CONTINUOUS
  0
LAYER
  2
1
 70
     0
 62
    12
  6
CONTINUOUS
  0
ENDTAB
  0
TABLE
  2
STYLE
 70
     3
  0
STYLE
  2
STANDARD
 70
     0
 40
0.0
 41
1.0
 50
0.0
 71
     0
 42
0.0
  3
txt
  4

  0
STYLE
  2
MAIN
 70
     0
 40
0.2
 41
1.0
 50
0.0
 71
     0
 42
0.2
  3
MAIN
  4

  0
STYLE
  2
ARCHITEK
 70
     0
 40
0.2
 41
1.0
 50
0.0
 71
     0
 42
0.2
  3
ARCHITEK
  4

  0
ENDTAB
  0
TABLE
  2
VIEW
 70
     0
  0
ENDTAB
  0
TABLE
  2
UCS
 70
     0
  0
ENDTAB
  0
TABLE
  2
APPID
 70
     2
  0
APPID
  2
ACAD
 70
     0
  0
APPID
  2
DCO15
 70
     0
  0
ENDTAB
  0
TABLE
  2
DIMSTYLE
 70
     1
  0
DIMSTYLE
  2
STANDARD
 70
     0
  3

  4

  5

  6

  7

 40
1.0
 41
0.18
 42
0.0625
 43
0.38
 44
0.18
 45
0.0
 46
0.0
 47
0.0
 48
0.0
140
0.18
141
0.09
142
0.0
143
25.399999999999999
144
1.0
145
0.0
146
1.0
147
0.09
 71
     0
 72
     0
 73
     1
 74
     1
 75
     0
 76
     0
 77
     0
 78
     0
170
     0
171
     2
172
     0
173
     0
174
     0
175
     0
176
     0
177
     0
178
     0
  0
ENDTAB
  0
ENDSEC
  0
SECTION
  2
BLOCKS
  0
BLOCK
  8
0
  2
$MODEL_SPACE
 70
     0
 10
0.0
 20
0.0
 30
0.0
  3
$MODEL_SPACE
  1

  0
ENDBLK
  5
E
  8
0
  0
BLOCK
 67
     1
  8
0
  2
$PAPER_SPACE
 70
     0
 10
0.0
 20
0.0
 30
0.0
  3
$PAPER_SPACE
  1

  0
ENDBLK
  5
10
 67
     1
  8
0
  0
BLOCK
  8
0
  2
IHPRV-75
 70
     0
 10
0.0
 20
0.0
 30
0.0
  3
IHPRV-75
  1

  0
LINE
  5
2B
  8
1
  6
CONTINUOUS
 62
     4
 10
0.51938248
 20
1.6357717499999991
 30
0.0
 11
2.6756324799999991
 21
1.6357717499999991
 31
0.0
  0
LINE
  5
2C
  8
1
  6
CONTINUOUS
 62
     4
 10
0.51938248
 20
1.3857717499999991
 30
0.0
 11
2.6756324799999991
 21
1.3857717499999991
 31
0.0
  0
LINE
  5
2D
  8
1
  6
CONTINUOUS
 62
     4
 10
0.51938248
 20
1.3857717499999991
 30
0.0
 11
0.51938248
 21
1.6357717499999991
 31
0.0
  0
LINE
  5
2E
  8
1
  6
CONTINUOUS
 62
     4
 10
2.6756324799999991
 20
1.3857717499999991
 30
0.0
 11
2.6756324799999991
 21
1.6357717499999991
 31
0.0
  0
LINE
  5
2F
  8
1
  6
CONTINUOUS
 62
     4
 10
2.6756324799999991
 20
1.6357717499999991
 30
0.0
 11
2.1756324799999991
 21
1.6357717499999991
 31
0.0
  0
LINE
  5
30
  8
1
  6
CONTINUOUS
 62
     4
 10
2.1756324799999991
 20
1.6357717499999991
 30
0.0
 11
2.2342033400000001
 21
1.7821998599999991
 31
0.0
  0
ARC
  5
31
  8
1
  6
CONTINUOUS
 62
     4
 10
2.2487112800000002
 20
1.77639594
 30
0.0
 40
0.01562581
 50
90.0
 51
158.19607793
  0
LINE
  5
32
  8
1
  6
CONTINUOUS
 62
     4
 10
2.2487115900000001
 20
1.7920217499999991
 30
0.0
 11
2.602553369999999
 21
1.7920217499999991
 31
0.0
  0
ARC
  5
33
  8
1
  6
CONTINUOUS
 62
     4
 10
2.6025536699999989
 20
1.77639594
 30
0.0
 40
0.01562581
 50
21.803922069999999
 51
90.0
  0
LINE
  5
34
  8
1
  6
CONTINUOUS
 62
     4
 10
2.617061609999999
 20
1.7821998599999991
 30
0.0
 11
2.6756324799999991
 21
1.6357717499999991
 31
0.0
  0
LINE
  5
35
  8
1
  6
CONTINUOUS
 62
     4
 10
0.51938248
 20
1.6357717499999991
 30
0.0
 11
1.0193824799999991
 21
1.6357717499999991
 31
0.0
  0
LINE
  5
36
  8
1
  6
CONTINUOUS
 62
     4
 10
1.0193824799999991
 20
1.6357717499999991
 30
0.0
 11
0.96081161
 21
1.7821998599999991
 31
0.0
  0
ARC
  5
37
  8
1
  6
CONTINUOUS
 62
     4
 10
0.9463036699999999
 20
1.77639594
 30
0.0
 40
0.01562581
 50
21.803922069999999
 51
90.0
  0
LINE
  5
38
  8
1
  6
CONTINUOUS
 62
     4
 10
0.94630337
 20
1.7920217499999991
 30
0.0
 11
0.59246159
 21
1.7920217499999991
 31
0.0
  0
ARC
  5
39
  8
1
  6
CONTINUOUS
 62
     4
 10
0.5924612800000001
 20
1.77639594
 30
0.0
 40
0.01562581
 50
90.0
 51
158.19607793
  0
LINE
  5
3A
  8
1
  6
CONTINUOUS
 62
     4
 10
0.57795334
 20
1.7821998599999991
 30
0.0
 11
0.51938248
 21
1.6357717499999991
 31
0.0
  0
LINE
  5
3B
  8
1
  6
CONTINUOUS
 62
     4
 10
0.91568947
 20
1.7920217499999991
 30
0.0
 11
0.9692220700000001
 21
3.264178279999999
 31
0.0
  0
ARC
  5
3C
  8
1
  6
CONTINUOUS
 62
     4
 10
1.0629115
 20
3.2607703599999991
 30
0.0
 40
0.09375139
 50
90.0
 51
177.9168091299999
  0
LINE
  5
3D
  8
1
  6
CONTINUOUS
 62
     4
 10
1.0629100799999991
 20
3.3545217499999991
 30
0.0
 11
2.13210487
 21
3.3545217499999991
 31
0.0
  0
ARC
  5
3E
  8
1
  6
CONTINUOUS
 62
     4
 10
2.1321034600000002
 20
3.2607703599999991
 30
0.0
 40
0.09375139
 50
2.0831908700000001
 51
90.0
  0
LINE
  5
3F
  8
1
  6
CONTINUOUS
 62
     4
 10
2.2257928800000002
 20
3.264178279999999
 30
0.0
 11
2.2793254900000002
 21
1.7920217499999991
 31
0.0
  0
LINE
  5
40
  8
1
  6
CONTINUOUS
 62
     4
 10
1.2725076699999991
 20
3.3545217499999991
 30
0.0
 11
1.2725076699999991
 21
3.6826467499999991
 31
0.0
  0
ARC
  5
41
  8
1
  6
CONTINUOUS
 62
     4
 10
1.319381729999999
 20
3.68264769
 30
0.0
 40
0.04687406
 50
90.0
 51
180.00114418000001
  0
LINE
  5
42
  8
1
  6
CONTINUOUS
 62
     4
 10
1.3193826699999991
 20
3.7295217499999991
 30
0.0
 11
1.8756322899999991
 21
3.7295217499999991
 31
0.0
  0
ARC
  5
43
  8
1
  6
CONTINUOUS
 62
     4
 10
1.8756332200000001
 20
3.68264769
 30
0.0
 40
0.04687406
 50
359.99885582000002
 51
450.0
  0
LINE
  5
44
  8
1
  6
CONTINUOUS
 62
     4
 10
1.9225072899999991
 20
3.6826467499999991
 30
0.0
 11
1.9225072899999991
 21
3.3545217499999991
 31
0.0
  0
LINE
  5
45
  8
1
  6
CONTINUOUS
 62
     4
 10
1.2725076699999991
 20
3.8232717499999991
 30
0.0
 11
1.9225072899999991
 21
3.8232717499999991
 31
0.0
  0
LINE
  5
46
  8
1
  6
CONTINUOUS
 62
     4
 10
1.2725076699999991
 20
3.7295217499999991
 30
0.0
 11
1.9225072899999991
 21
3.7295217499999991
 31
0.0
  0
LINE
  5
47
  8
1
  6
CONTINUOUS
 62
     4
 10
1.2725076699999991
 20
3.7295217499999991
 30
0.0
 11
1.2725076699999991
 21
3.8232717499999991
 31
0.0
  0
LINE
  5
48
  8
1
  6
CONTINUOUS
 62
     4
 10
1.9225072899999991
 20
3.8232717499999991
 30
0.0
 11
1.9225072899999991
 21
3.7295217499999991
 31
0.0
  0
LINE
  5
49
  8
1
  6
CONTINUOUS
 62
     4
 10
1.2725076699999991
 20
3.7763967499999991
 30
0.0
 11
1.9225072899999991
 21
3.7763967499999991
 31
0.0
  0
ARC
  5
4A
  8
1
  6
CONTINUOUS
 62
     2
 10
0.6921781000000001
 20
2.5756174600000001
 30
0.0
 40
0.12499967
 50
270.0
 51
360.00014921000002
  0
ARC
  5
4B
  8
1
  6
CONTINUOUS
 62
     2
 10
1.5453082
 20
3.159067059999999
 30
0.0
 40
0.7281304300000001
 50
90.0
 51
179.99991793000001
  0
LINE
  5
4C
  8
1
  6
CONTINUOUS
 62
     2
 10
0.8171777699999999
 20
2.575617789999999
 30
0.0
 11
0.8171777699999999
 21
3.1590681100000002
 31
0.0
  0
LINE
  5
4D
  8
1
  6
CONTINUOUS
 62
     2
 10
0.69217777
 20
2.450617789999999
 30
0.0
 11
0.69217777
 21
3.6488409000000002
 31
0.0
  0
ARC
  5
4E
  8
1
  6
CONTINUOUS
 62
     2
 10
0.8171869199999999
 20
3.6488373099999989
 30
0.0
 40
0.12500915
 50
135.0017982
 51
179.99835100999991
  0
LINE
  5
4F
  8
1
  6
CONTINUOUS
 62
     2
 10
0.7287893300000001
 20
3.7372293499999989
 30
0.0
 11
1.1858959200000001
 21
4.1943359400000002
 31
0.0
  0
ARC
  5
50
  8
1
  6
CONTINUOUS
 62
     2
 10
1.2742835299999991
 20
4.1059490399999987
 30
0.0
 40
0.12499845
 50
90.0
 51
135.00023214000001
  0
LINE
  5
51
  8
1
  6
CONTINUOUS
 62
     2
 10
1.27428436
 20
4.2309474900000001
 30
0.0
 11
1.9725074799999991
 21
4.2309474900000001
 31
0.0
  0
ARC
  5
52
  8
1
  6
CONTINUOUS
 62
     2
 10
1.722508879999999
 20
4.1371960899999989
 30
0.0
 40
0.2499986
 50
270.0
 51
360.00032172999988
  0
LINE
  5
53
  8
1
  6
CONTINUOUS
 62
     2
 10
1.545307159999999
 20
3.8871974900000001
 30
0.0
 11
1.7225074799999991
 21
3.8871974900000001
 31
0.0
  0
LINE
  5
54
  8
1
  6
CONTINUOUS
 62
     2
 10
1.9725074799999991
 20
4.2309474900000001
 30
0.0
 11
1.9725074799999991
 21
4.1371974900000001
 31
0.0
  0
LINE
  5
55
  8
1
  6
CONTINUOUS
 62
     2
 10
1.9725074799999991
 20
4.2309474900000001
 30
0.0
 11
1.5975074799999991
 21
4.2309474900000001
 31
0.0
  0
CIRCLE
  5
56
  8
1
  6
CONTINUOUS
 62
     2
 10
1.5975074799999991
 20
4.0121974900000001
 30
0.0
 40
0.046875
  0
LINE
  5
57
  8
1
  6
CONTINUOUS
 62
     4
 10
1.4881324799999991
 20
3.8232717499999991
 30
0.0
 11
1.4881324799999991
 21
3.8849487300000001
 31
0.0
  0
LINE
  5
58
  8
1
  6
CONTINUOUS
 62
     4
 10
1.7068824799999991
 20
3.8232717499999991
 30
0.0
 11
1.7068824799999991
 21
3.8849487300000001
 31
0.0
  0
LINE
  5
59
  8
1
  6
CONTINUOUS
 62
     4
 10
2.6756324799999991
 20
1.6357717499999991
 30
0.0
 11
2.6756324799999991
 21
1.1982717499999991
 31
0.0
  0
LINE
  5
5A
  8
1
  6
CONTINUOUS
 62
     4
 10
0.9100065199999999
 20
-0.23922825
 30
0.0
 11
2.2850074799999991
 21
-0.23922825
 31
0.0
  0
LINE
  5
5B
  8
1
  6
CONTINUOUS
 62
     4
 10
0.9100065199999999
 20
-0.23922825
 30
0.0
 11
0.9100065199999999
 21
0.26077175
 31
0.0
  0
LINE
  5
5C
  8
1
  6
CONTINUOUS
 62
     4
 10
3.1756324799999991
 20
-0.11422825
 30
0.0
 11
3.1756324799999991
 21
1.1982717499999991
 31
0.0
  0
ARC
  5
5D
  8
1
  6
CONTINUOUS
 62
     4
 10
2.4785581799999989
 20
-0.32581472
 30
0.0
 40
0.21203559
 50
93.205812390000006
 51
155.89825934000001
  0
LINE
  5
5E
  8
1
  6
CONTINUOUS
 62
     4
 10
0.51938248
 20
1.3857717499999991
 30
0.0
 11
0.51938248
 21
1.1357717499999991
 31
0.0
  0
LINE
  5
5F
  8
1
  6
CONTINUOUS
 62
     4
 10
0.51938248
 20
1.1357717499999991
 30
0.0
 11
0.76084042
 21
0.40968323
 31
0.0
  0
LINE
  5
60
  8
1
  6
CONTINUOUS
 62
     4
 10
0.76084042
 20
0.40968323
 30
0.0
 11
0.9100065199999999
 21
0.26077175
 31
0.0
  0
LINE
  5
61
  8
1
  6
CONTINUOUS
 62
     4
 10
1.5975074799999991
 20
-0.23922825
 30
0.0
 11
1.2850074799999991
 21
-0.23922825
 31
0.0
  0
LINE
  5
62
  8
1
  6
CONTINUOUS
 62
     4
 10
1.2850074799999991
 20
-0.23922825
 30
0.0
 11
1.2850074799999991
 21
0.26077175
 31
0.0
  0
LINE
  5
63
  8
1
  6
CONTINUOUS
 62
     4
 10
1.2850074799999991
 20
0.26077175
 30
0.0
 11
1.9100074799999991
 21
0.26077175
 31
0.0
  0
LINE
  5
64
  8
1
  6
CONTINUOUS
 62
     4
 10
1.9100074799999991
 20
0.26077175
 30
0.0
 11
1.9100074799999991
 21
-0.23922825
 31
0.0
  0
TEXT
  5
65
  8
1
  6
CONTINUOUS
 62
     4
 10
1.4464750299999991
 20
-0.12435722
 30
0.0
 40
0.25
  1
IN
  7
MAIN
  0
LINE
  5
66
  8
1
  6
CONTINUOUS
 62
     4
 10
2.9881324799999991
 20
-0.11422825
 30
0.0
 11
2.9881324799999991
 21
1.1982717499999991
 31
0.0
  0
LINE
  5
67
  8
1
  6
CONTINUOUS
 62
     4
 10
2.8318824799999991
 20
-0.11422825
 30
0.0
 11
2.8318824799999991
 21
1.1982717499999991
 31
0.0
  0
LINE
  5
68
  8
1
  6
CONTINUOUS
 62
     4
 10
2.2068824799999991
 20
0.50947666
 30
0.0
 11
2.4256324799999991
 21
0.38318157
 31
0.0
  0
LINE
  5
69
  8
1
  6
CONTINUOUS
 62
     4
 10
2.4256324799999991
 20
0.38318157
 30
0.0
 11
2.6443824799999991
 21
0.50947666
 31
0.0
  0
LINE
  5
6A
  8
1
  6
CONTINUOUS
 62
     4
 10
2.6443824799999991
 20
0.50947666
 30
0.0
 11
2.6443824799999991
 21
0.7620668400000001
 31
0.0
  0
LINE
  5
6B
  8
1
  6
CONTINUOUS
 62
     4
 10
2.6443824799999991
 20
0.7620668400000001
 30
0.0
 11
2.4256324799999991
 21
0.8883619299999999
 31
0.0
  0
LINE
  5
6C
  8
1
  6
CONTINUOUS
 62
     4
 10
2.4256324799999991
 20
0.8883619299999999
 30
0.0
 11
2.2068824799999991
 21
0.7620677900000001
 31
0.0
  0
LINE
  5
6D
  8
1
  6
CONTINUOUS
 62
     4
 10
2.2068824799999991
 20
0.7620677900000001
 30
0.0
 11
2.2068824799999991
 21
0.50947666
 31
0.0
  0
CIRCLE
  5
6E
  8
1
  6
CONTINUOUS
 62
     4
 10
2.4256324799999991
 20
0.63577175
 30
0.0
 40
0.08118994
  0
LINE
  5
6F
  8
1
  6
CONTINUOUS
 62
     4
 10
0.64438248
 20
1.089299199999999
 30
0.0
 11
0.8943824799999999
 21
1.089299199999999
 31
0.0
  0
LINE
  5
70
  8
1
  6
CONTINUOUS
 62
     4
 10
0.8943824799999999
 20
1.089299199999999
 30
0.0
 11
0.8943824799999999
 21
1.1982717499999991
 31
0.0
  0
LINE
  5
71
  8
1
  6
CONTINUOUS
 62
     4
 10
2.1756324799999991
 20
1.2607717499999991
 30
0.0
 11
2.1756324799999991
 21
1.1982717499999991
 31
0.0
  0
LINE
  5
72
  8
1
  6
CONTINUOUS
 62
     4
 10
2.1756324799999991
 20
1.1982717499999991
 30
0.0
 11
2.6756324799999991
 21
1.1982717499999991
 31
0.0
  0
LINE
  5
73
  8
1
  6
CONTINUOUS
 62
     4
 10
0.51938248
 20
1.1982717499999991
 30
0.0
 11
1.0193824799999991
 21
1.1982717499999991
 31
0.0
  0
LINE
  5
74
  8
1
  6
CONTINUOUS
 62
     4
 10
1.0193824799999991
 20
1.1982717499999991
 30
0.0
 11
1.0193824799999991
 21
1.2607717499999991
 31
0.0
  0
LINE
  5
75
  8
1
  6
CONTINUOUS
 62
     4
 10
1.0193824799999991
 20
1.2607717499999991
 30
0.0
 11
2.1756324799999991
 21
1.2607717499999991
 31
0.0
  0
LINE
  5
76
  8
1
  6
CONTINUOUS
 62
     4
 10
0.64438248
 20
1.089299199999999
 30
0.0
 11
0.64438248
 21
1.1982717499999991
 31
0.0
  0
LINE
  5
77
  8
1
  6
CONTINUOUS
 62
     4
 10
0.6830864
 20
1.1489925400000001
 30
0.0
 11
0.8479385399999999
 21
1.1489925400000001
 31
0.0
  0
LINE
  5
78
  8
1
  6
CONTINUOUS
 62
     4
 10
2.3006324799999991
 20
1.089299199999999
 30
0.0
 11
2.5506324799999991
 21
1.089299199999999
 31
0.0
  0
LINE
  5
79
  8
1
  6
CONTINUOUS
 62
     4
 10
2.5506324799999991
 20
1.089299199999999
 30
0.0
 11
2.5506324799999991
 21
1.1982717499999991
 31
0.0
  0
LINE
  5
7A
  8
1
  6
CONTINUOUS
 62
     4
 10
2.3006324799999991
 20
1.089299199999999
 30
0.0
 11
2.3006324799999991
 21
1.1982717499999991
 31
0.0
  0
LINE
  5
7B
  8
1
  6
CONTINUOUS
 62
     4
 10
2.3393364000000001
 20
1.1489925400000001
 30
0.0
 11
2.504188539999999
 21
1.1489925400000001
 31
0.0
  0
LINE
  5
7C
  8
1
  6
CONTINUOUS
 62
     4
 10
4.4848184599999987
 20
1.6357717499999991
 30
0.0
 11
6.6410684599999987
 21
1.6357717499999991
 31
0.0
  0
LINE
  5
7D
  8
1
  6
CONTINUOUS
 62
     4
 10
4.4848184599999987
 20
1.3857717499999991
 30
0.0
 11
6.6410684599999987
 21
1.3857717499999991
 31
0.0
  0
LINE
  5
7E
  8
1
  6
CONTINUOUS
 62
     4
 10
4.4848184599999987
 20
1.3857717499999991
 30
0.0
 11
4.4848184599999987
 21
1.6357717499999991
 31
0.0
  0
LINE
  5
7F
  8
1
  6
CONTINUOUS
 62
     4
 10
6.6410684599999987
 20
1.3857717499999991
 30
0.0
 11
6.6410684599999987
 21
1.6357717499999991
 31
0.0
  0
LINE
  5
80
  8
1
  6
CONTINUOUS
 62
     4
 10
6.6410684599999987
 20
1.6357717499999991
 30
0.0
 11
6.1410684599999987
 21
1.6357717499999991
 31
0.0
  0
LINE
  5
81
  8
1
  6
CONTINUOUS
 62
     4
 10
6.1410684599999987
 20
1.6357717499999991
 30
0.0
 11
6.1996393200000002
 21
1.7821998599999991
 31
0.0
  0
ARC
  5
82
  8
1
  6
CONTINUOUS
 62
     4
 10
6.214147259999999
 20
1.77639594
 30
0.0
 40
0.01562581
 50
90.0
 51
158.19607793
  0
LINE
  5
83
  8
1
  6
CONTINUOUS
 62
     4
 10
6.2141475699999988
 20
1.7920217499999991
 30
0.0
 11
6.5679893500000004
 21
1.7920217499999991
 31
0.0
  0
ARC
  5
84
  8
1
  6
CONTINUOUS
 62
     4
 10
6.5679896500000003
 20
1.77639594
 30
0.0
 40
0.01562581
 50
21.803922069999999
 51
90.0
  0
LINE
  5
85
  8
1
  6
CONTINUOUS
 62
     4
 10
6.5824975999999991
 20
1.7821998599999991
 30
0.0
 11
6.6410684599999987
 21
1.6357717499999991
 31
0.0
  0
LINE
  5
86
  8
1
  6
CONTINUOUS
 62
     4
 10
4.4848184599999987
 20
1.6357717499999991
 30
0.0
 11
4.9848184599999987
 21
1.6357717499999991
 31
0.0
  0
LINE
  5
87
  8
1
  6
CONTINUOUS
 62
     4
 10
4.9848184599999987
 20
1.6357717499999991
 30
0.0
 11
4.9262475999999991
 21
1.7821998599999991
 31
0.0
  0
ARC
  5
88
  8
1
  6
CONTINUOUS
 62
     4
 10
4.9117396500000003
 20
1.77639594
 30
0.0
 40
0.01562581
 50
21.803922069999999
 51
90.0
  0
LINE
  5
89
  8
1
  6
CONTINUOUS
 62
     4
 10
4.9117393500000004
 20
1.7920217499999991
 30
0.0
 11
4.5578975699999988
 21
1.7920217499999991
 31
0.0
  0
ARC
  5
8A
  8
1
  6
CONTINUOUS
 62
     4
 10
4.557897259999999
 20
1.77639594
 30
0.0
 40
0.01562581
 50
90.0
 51
158.19607793
  0
LINE
  5
8B
  8
1
  6
CONTINUOUS
 62
     4
 10
4.5433893200000002
 20
1.7821998599999991
 30
0.0
 11
4.4848184599999987
 21
1.6357717499999991
 31
0.0
  0
LINE
  5
8C
  8
1
  6
CONTINUOUS
 62
     4
 10
4.881125449999999
 20
1.7920217499999991
 30
0.0
 11
4.9346580500000004
 21
3.264178279999999
 31
0.0
  0
ARC
  5
8D
  8
1
  6
CONTINUOUS
 62
     4
 10
5.028347479999999
 20
3.2607703599999991
 30
0.0
 40
0.09375139
 50
90.0
 51
177.9168091299999
  0
LINE
  5
8E
  8
1
  6
CONTINUOUS
 62
     4
 10
5.0283460599999987
 20
3.3545217499999991
 30
0.0
 11
6.0975408599999987
 21
3.3545217499999991
 31
0.0
  0
ARC
  5
8F
  8
1
  6
CONTINUOUS
 62
     4
 10
6.0975394400000003
 20
3.2607703599999991
 30
0.0
 40
0.09375139
 50
2.0831908700000001
 51
90.0
  0
LINE
  5
90
  8
1
  6
CONTINUOUS
 62
     4
 10
6.1912288699999989
 20
3.264178279999999
 30
0.0
 11
6.2447614700000003
 21
1.7920217499999991
 31
0.0
  0
LINE
  5
91
  8
1
  6
CONTINUOUS
 62
     4
 10
5.2379436500000001
 20
3.3545217499999991
 30
0.0
 11
5.2379436500000001
 21
3.6826467499999991
 31
0.0
  0
ARC
  5
92
  8
1
  6
CONTINUOUS
 62
     4
 10
5.2848177099999987
 20
3.68264769
 30
0.0
 40
0.04687406
 50
90.0
 51
180.00114418000001
  0
LINE
  5
93
  8
1
  6
CONTINUOUS
 62
     4
 10
5.2848186500000001
 20
3.7295217499999991
 30
0.0
 11
5.8410682700000001
 21
3.7295217499999991
 31
0.0
  0
ARC
  5
94
  8
1
  6
CONTINUOUS
 62
     4
 10
5.8410691999999989
 20
3.68264769
 30
0.0
 40
0.04687406
 50
359.99885582000002
 51
450.0
  0
LINE
  5
95
  8
1
  6
CONTINUOUS
 62
     4
 10
5.8879432700000001
 20
3.6826467499999991
 30
0.0
 11
5.8879432700000001
 21
3.3545217499999991
 31
0.0
  0
LINE
  5
96
  8
1
  6
CONTINUOUS
 62
     4
 10
5.2379436500000001
 20
3.8232717499999991
 30
0.0
 11
5.8879432700000001
 21
3.8232717499999991
 31
0.0
  0
LINE
  5
97
  8
1
  6
CONTINUOUS
 62
     4
 10
5.2379436500000001
 20
3.7295217499999991
 30
0.0
 11
5.8879432700000001
 21
3.7295217499999991
 31
0.0
  0
LINE
  5
98
  8
1
  6
CONTINUOUS
 62
     4
 10
5.2379436500000001
 20
3.7295217499999991
 30
0.0
 11
5.2379436500000001
 21
3.8232717499999991
 31
0.0
  0
LINE
  5
99
  8
1
  6
CONTINUOUS
 62
     4
 10
5.8879432700000001
 20
3.8232717499999991
 30
0.0
 11
5.8879432700000001
 21
3.7295217499999991
 31
0.0
  0
LINE
  5
9A
  8
1
  6
CONTINUOUS
 62
     4
 10
5.2379436500000001
 20
3.7763967499999991
 30
0.0
 11
5.8879432700000001
 21
3.7763967499999991
 31
0.0
  0
ARC
  5
9B
  8
1
  6
CONTINUOUS
 62
     2
 10
4.6576140800000001
 20
2.5756174600000001
 30
0.0
 40
0.12499967
 50
270.0
 51
360.00014921000002
  0
ARC
  5
9C
  8
1
  6
CONTINUOUS
 62
     2
 10
5.5107441799999988
 20
3.159067059999999
 30
0.0
 40
0.7281304300000001
 50
90.0
 51
179.99991793000001
  0
LINE
  5
9D
  8
1
  6
CONTINUOUS
 62
     2
 10
4.7826137500000003
 20
2.575617789999999
 30
0.0
 11
4.7826137500000003
 21
3.1590681100000002
 31
0.0
  0
LINE
  5
9E
  8
1
  6
CONTINUOUS
 62
     2
 10
4.6576137500000003
 20
2.450617789999999
 30
0.0
 11
4.6576137500000003
 21
3.6488409000000002
 31
0.0
  0
ARC
  5
9F
  8
1
  6
CONTINUOUS
 62
     2
 10
4.7826228999999989
 20
3.6488373099999989
 30
0.0
 40
0.12500915
 50
135.0017982
 51
179.99835100999991
  0
LINE
  5
A0
  8
1
  6
CONTINUOUS
 62
     2
 10
4.6942253100000002
 20
3.7372293499999989
 30
0.0
 11
5.1513318999999989
 21
4.1943359400000002
 31
0.0
  0
ARC
  5
A1
  8
1
  6
CONTINUOUS
 62
     2
 10
5.2397195099999987
 20
4.1059490399999987
 30
0.0
 40
0.12499845
 50
90.0
 51
135.00023214000001
  0
LINE
  5
A2
  8
1
  6
CONTINUOUS
 62
     2
 10
5.239720339999999
 20
4.2309474900000001
 30
0.0
 11
5.9379434599999987
 21
4.2309474900000001
 31
0.0
  0
ARC
  5
A3
  8
1
  6
CONTINUOUS
 62
     2
 10
5.6879448599999991
 20
4.1371960899999989
 30
0.0
 40
0.2499986
 50
270.0
 51
360.00032172999988
  0
LINE
  5
A4
  8
1
  6
CONTINUOUS
 62
     2
 10
5.5107431399999989
 20
3.8871974900000001
 30
0.0
 11
5.6879434599999987
 21
3.8871974900000001
 31
0.0
  0
LINE
  5
A5
  8
1
  6
CONTINUOUS
 62
     2
 10
5.9379434599999987
 20
4.2309474900000001
 30
0.0
 11
5.9379434599999987
 21
4.1371974900000001
 31
0.0
  0
LINE
  5
A6
  8
1
  6
CONTINUOUS
 62
     2
 10
5.9379434599999987
 20
4.2309474900000001
 30
0.0
 11
5.5629434599999987
 21
4.2309474900000001
 31
0.0
  0
CIRCLE
  5
A7
  8
1
  6
CONTINUOUS
 62
     2
 10
5.5629434599999987
 20
4.0121974900000001
 30
0.0
 40
0.046875
  0
LINE
  5
A8
  8
1
  6
CONTINUOUS
 62
     4
 10
5.4535684599999987
 20
3.8232717499999991
 30
0.0
 11
5.4535684599999987
 21
3.8849487300000001
 31
0.0
  0
LINE
  5
A9
  8
1
  6
CONTINUOUS
 62
     4
 10
5.6723184599999987
 20
3.8232717499999991
 30
0.0
 11
5.6723184599999987
 21
3.8849487300000001
 31
0.0
  0
LINE
  5
AA
  8
1
  6
CONTINUOUS
 62
     4
 10
6.6410684599999987
 20
1.6357717499999991
 30
0.0
 11
6.6410684599999987
 21
1.1982717499999991
 31
0.0
  0
LINE
  5
AB
  8
1
  6
CONTINUOUS
 62
     4
 10
4.4848184599999987
 20
1.3857717499999991
 30
0.0
 11
4.4848184599999987
 21
1.1357717499999991
 31
0.0
  0
LINE
  5
AC
  8
1
  6
CONTINUOUS
 62
     4
 10
4.6098184599999987
 20
1.089299199999999
 30
0.0
 11
4.8598184599999987
 21
1.089299199999999
 31
0.0
  0
LINE
  5
AD
  8
1
  6
CONTINUOUS
 62
     4
 10
4.8598184599999987
 20
1.089299199999999
 30
0.0
 11
4.8598184599999987
 21
1.1982717499999991
 31
0.0
  0
LINE
  5
AE
  8
1
  6
CONTINUOUS
 62
     4
 10
6.1410684599999987
 20
1.2607717499999991
 30
0.0
 11
6.1410684599999987
 21
1.1982717499999991
 31
0.0
  0
LINE
  5
AF
  8
1
  6
CONTINUOUS
 62
     4
 10
6.1410684599999987
 20
1.1982717499999991
 30
0.0
 11
6.6410684599999987
 21
1.1982717499999991
 31
0.0
  0
LINE
  5
B0
  8
1
  6
CONTINUOUS
 62
     4
 10
4.4848184599999987
 20
1.1982717499999991
 30
0.0
 11
4.9848184599999987
 21
1.1982717499999991
 31
0.0
  0
LINE
  5
B1
  8
1
  6
CONTINUOUS
 62
     4
 10
4.9848184599999987
 20
1.1982717499999991
 30
0.0
 11
4.9848184599999987
 21
1.2607717499999991
 31
0.0
  0
LINE
  5
B2
  8
1
  6
CONTINUOUS
 62
     4
 10
4.9848184599999987
 20
1.2607717499999991
 30
0.0
 11
6.1410684599999987
 21
1.2607717499999991
 31
0.0
  0
LINE
  5
B3
  8
1
  6
CONTINUOUS
 62
     4
 10
4.6098184599999987
 20
1.089299199999999
 30
0.0
 11
4.6098184599999987
 21
1.1982717499999991
 31
0.0
  0
LINE
  5
B4
  8
1
  6
CONTINUOUS
 62
     4
 10
4.6485223800000002
 20
1.1489925400000001
 30
0.0
 11
4.8133745199999991
 21
1.1489925400000001
 31
0.0
  0
LINE
  5
B5
  8
1
  6
CONTINUOUS
 62
     4
 10
6.2660684599999987
 20
1.089299199999999
 30
0.0
 11
6.5160684599999987
 21
1.089299199999999
 31
0.0
  0
LINE
  5
B6
  8
1
  6
CONTINUOUS
 62
     4
 10
6.5160684599999987
 20
1.089299199999999
 30
0.0
 11
6.5160684599999987
 21
1.1982717499999991
 31
0.0
  0
LINE
  5
B7
  8
1
  6
CONTINUOUS
 62
     4
 10
6.2660684599999987
 20
1.089299199999999
 30
0.0
 11
6.2660684599999987
 21
1.1982717499999991
 31
0.0
  0
LINE
  5
B8
  8
1
  6
CONTINUOUS
 62
     4
 10
6.3047723800000002
 20
1.1489925400000001
 30
0.0
 11
6.4696245199999991
 21
1.1489925400000001
 31
0.0
  0
LINE
  5
B9
  8
1
  6
CONTINUOUS
 62
     4
 10
6.6410684599999987
 20
1.1357717499999991
 30
0.0
 11
6.3996105200000004
 21
0.40968323
 31
0.0
  0
LINE
  5
BA
  8
1
  6
CONTINUOUS
 62
     4
 10
6.1410684599999987
 20
1.1982717499999991
 30
0.0
 11
6.1410684599999987
 21
1.2607717499999991
 31
0.0
  0
LINE
  5
BB
  8
1
  6
CONTINUOUS
 62
     4
 10
6.6410684599999987
 20
1.1982717499999991
 30
0.0
 11
6.6410684599999987
 21
1.1357717499999991
 31
0.0
  0
LINE
  5
BC
  8
1
  6
CONTINUOUS
 62
     4
 10
4.8598184599999987
 20
-0.23922825
 30
0.0
 11
6.2660684599999987
 21
-0.23922825
 31
0.0
  0
LINE
  5
BD
  8
1
  6
CONTINUOUS
 62
     4
 10
4.7262763999999988
 20
0.40968323
 30
0.0
 11
4.8598184599999987
 21
0.27636909
 31
0.0
  0
LINE
  5
BE
  8
1
  6
CONTINUOUS
 62
     4
 10
4.8598184599999987
 20
0.27636909
 30
0.0
 11
4.8598184599999987
 21
-0.23922825
 31
0.0
  0
LINE
  5
BF
  8
1
  6
CONTINUOUS
 62
     4
 10
6.2660684599999987
 20
-0.23922825
 30
0.0
 11
6.2660684599999987
 21
0.27636909
 31
0.0
  0
LINE
  5
C0
  8
1
  6
CONTINUOUS
 62
     4
 10
6.2660684599999987
 20
0.27636909
 30
0.0
 11
6.3996105200000004
 21
0.40968323
 31
0.0
  0
CIRCLE
  5
C1
  8
1
  6
CONTINUOUS
 62
     4
 10
5.5629434599999987
 20
2.8545217499999991
 30
0.0
 40
0.125
  0
LINE
  5
C2
  8
1
  6
CONTINUOUS
 62
     4
 10
-2.402739519999999
 20
1.6357717499999991
 30
0.0
 11
-0.24648952
 21
1.6357717499999991
 31
0.0
  0
LINE
  5
C3
  8
1
  6
CONTINUOUS
 62
     4
 10
-2.402739519999999
 20
1.3857717499999991
 30
0.0
 11
-0.24648952
 21
1.3857717499999991
 31
0.0
  0
LINE
  5
C4
  8
1
  6
CONTINUOUS
 62
     4
 10
-2.402739519999999
 20
1.3857717499999991
 30
0.0
 11
-2.402739519999999
 21
1.6357717499999991
 31
0.0
  0
LINE
  5
C5
  8
1
  6
CONTINUOUS
 62
     4
 10
-0.24648952
 20
1.3857717499999991
 30
0.0
 11
-0.24648952
 21
1.6357717499999991
 31
0.0
  0
LINE
  5
C6
  8
1
  6
CONTINUOUS
 62
     4
 10
-0.24648952
 20
1.6357717499999991
 30
0.0
 11
-0.74648952
 21
1.6357717499999991
 31
0.0
  0
LINE
  5
C7
  8
1
  6
CONTINUOUS
 62
     4
 10
-0.74648952
 20
1.6357717499999991
 30
0.0
 11
-0.6879186600000001
 21
1.7821998599999991
 31
0.0
  0
ARC
  5
C8
  8
1
  6
CONTINUOUS
 62
     4
 10
-0.67341246
 20
1.7763985200000001
 30
0.0
 40
0.01562323
 50
90.0
 51
158.20247094000001
  0
LINE
  5
C9
  8
1
  6
CONTINUOUS
 62
     4
 10
-0.67341137
 20
1.7920217499999991
 30
0.0
 11
-0.31956959
 21
1.7920217499999991
 31
0.0
  0
ARC
  5
CA
  8
1
  6
CONTINUOUS
 62
     4
 10
-0.31957007
 20
1.7763933700000001
 30
0.0
 40
0.01562838
 50
21.81031432
 51
90.0
  0
LINE
  5
CB
  8
1
  6
CONTINUOUS
 62
     4
 10
-0.30506039
 20
1.7821998599999991
 30
0.0
 11
-0.24648952
 21
1.6357717499999991
 31
0.0
  0
LINE
  5
CC
  8
1
  6
CONTINUOUS
 62
     4
 10
-2.402739519999999
 20
1.6357717499999991
 30
0.0
 11
-1.902739519999999
 21
1.6357717499999991
 31
0.0
  0
LINE
  5
CD
  8
1
  6
CONTINUOUS
 62
     4
 10
-1.902739519999999
 20
1.6357717499999991
 30
0.0
 11
-1.9613103899999991
 21
1.7821998599999991
 31
0.0
  0
ARC
  5
CE
  8
1
  6
CONTINUOUS
 62
     4
 10
-1.975820069999999
 20
1.7763933700000001
 30
0.0
 40
0.01562838
 50
21.81031432
 51
90.0
  0
LINE
  5
CF
  8
1
  6
CONTINUOUS
 62
     4
 10
-1.9758195899999991
 20
1.7920217499999991
 30
0.0
 11
-2.3296613700000002
 21
1.7920217499999991
 31
0.0
  0
ARC
  5
D0
  8
1
  6
CONTINUOUS
 62
     4
 10
-2.3296624600000002
 20
1.7763985200000001
 30
0.0
 40
0.01562323
 50
90.0
 51
158.20247094000001
  0
LINE
  5
D1
  8
1
  6
CONTINUOUS
 62
     4
 10
-2.3441686599999989
 20
1.7821998599999991
 30
0.0
 11
-2.402739519999999
 21
1.6357717499999991
 31
0.0
  0
LINE
  5
D2
  8
1
  6
CONTINUOUS
 62
     4
 10
-2.00643444
 20
1.7920217499999991
 30
0.0
 11
-1.95290089
 21
3.264178279999999
 31
0.0
  0
ARC
  5
D3
  8
1
  6
CONTINUOUS
 62
     4
 10
-1.8592131000000001
 20
3.260772059999999
 30
0.0
 40
0.09374969
 50
90.0
 51
177.91781152999991
  0
LINE
  5
D4
  8
1
  6
CONTINUOUS
 62
     4
 10
-1.8592138300000001
 20
3.3545217499999991
 30
0.0
 11
-0.79001904
 21
3.3545217499999991
 31
0.0
  0
ARC
  5
D5
  8
1
  6
CONTINUOUS
 62
     4
 10
-0.79002114
 20
3.2607686600000001
 30
0.0
 40
0.09375309
 50
2.0841932500000002
 51
90.0
  0
LINE
  5
D6
  8
1
  6
CONTINUOUS
 62
     4
 10
-0.6963300700000001
 20
3.264178279999999
 30
0.0
 11
-0.64279842
 21
1.7920217499999991
 31
0.0
  0
LINE
  5
D7
  8
1
  6
CONTINUOUS
 62
     4
 10
-1.6496152900000001
 20
3.3545217499999991
 30
0.0
 11
-1.6496152900000001
 21
3.6826467499999991
 31
0.0
  0
ARC
  5
D8
  8
1
  6
CONTINUOUS
 62
     4
 10
-1.6027412199999991
 20
3.68264769
 30
0.0
 40
0.04687406
 50
90.0
 51
180.00114418000001
  0
LINE
  5
D9
  8
1
  6
CONTINUOUS
 62
     4
 10
-1.6027402900000001
 20
3.7295217499999991
 30
0.0
 11
-1.0464906700000001
 21
3.7295217499999991
 31
0.0
  0
ARC
  5
DA
  8
1
  6
CONTINUOUS
 62
     4
 10
-1.04648973
 20
3.68264769
 30
0.0
 40
0.04687406
 50
359.99885582000002
 51
450.0
  0
LINE
  5
DB
  8
1
  6
CONTINUOUS
 62
     4
 10
-0.99961567
 20
3.6826467499999991
 30
0.0
 11
-0.99961567
 21
3.3545217499999991
 31
0.0
  0
LINE
  5
DC
  8
1
  6
CONTINUOUS
 62
     4
 10
-1.6496152900000001
 20
3.8232717499999991
 30
0.0
 11
-0.99961567
 21
3.8232717499999991
 31
0.0
  0
LINE
  5
DD
  8
1
  6
CONTINUOUS
 62
     4
 10
-1.6496152900000001
 20
3.7295217499999991
 30
0.0
 11
-0.99961567
 21
3.7295217499999991
 31
0.0
  0
LINE
  5
DE
  8
1
  6
CONTINUOUS
 62
     4
 10
-1.6496152900000001
 20
3.7295217499999991
 30
0.0
 11
-1.6496152900000001
 21
3.8232717499999991
 31
0.0
  0
LINE
  5
DF
  8
1
  6
CONTINUOUS
 62
     4
 10
-0.99961567
 20
3.8232717499999991
 30
0.0
 11
-0.99961567
 21
3.7295217499999991
 31
0.0
  0
LINE
  5
E0
  8
1
  6
CONTINUOUS
 62
     4
 10
-1.6496152900000001
 20
3.7763967499999991
 30
0.0
 11
-0.99961567
 21
3.7763967499999991
 31
0.0
  0
ARC
  5
E1
  8
1
  6
CONTINUOUS
 62
     2
 10
-2.2299448599999989
 20
2.5756174600000001
 30
0.0
 40
0.12499967
 50
270.0
 51
360.00014921000002
  0
ARC
  5
E2
  8
1
  6
CONTINUOUS
 62
     2
 10
-1.3768147500000001
 20
3.159067059999999
 30
0.0
 40
0.7281304300000001
 50
90.0
 51
179.99991793000001
  0
LINE
  5
E3
  8
1
  6
CONTINUOUS
 62
     2
 10
-2.1049451800000001
 20
2.575617789999999
 30
0.0
 11
-2.1049451800000001
 21
3.1590681100000002
 31
0.0
  0
LINE
  5
E4
  8
1
  6
CONTINUOUS
 62
     2
 10
-2.2299451800000001
 20
2.450617789999999
 30
0.0
 11
-2.2299451800000001
 21
3.6488409000000002
 31
0.0
  0
ARC
  5
E5
  8
1
  6
CONTINUOUS
 62
     2
 10
-2.1049360400000001
 20
3.6488373099999989
 30
0.0
 40
0.12500915
 50
135.0017982
 51
179.99835100999991
  0
LINE
  5
E6
  8
1
  6
CONTINUOUS
 62
     2
 10
-2.1933336300000001
 20
3.7372293499999989
 30
0.0
 11
-1.7362279899999991
 21
4.1943359400000002
 31
0.0
  0
ARC
  5
E7
  8
1
  6
CONTINUOUS
 62
     2
 10
-1.6478385399999991
 20
4.105944609999999
 30
0.0
 40
0.12500288
 50
90.0
 51
134.9993911599999
  0
LINE
  5
E8
  8
1
  6
CONTINUOUS
 62
     2
 10
-1.6478376400000001
 20
4.2309474900000001
 30
0.0
 11
-0.94961452
 21
4.2309474900000001
 31
0.0
  0
ARC
  5
E9
  8
1
  6
CONTINUOUS
 62
     2
 10
-1.1996147800000001
 20
4.1371977500000003
 30
0.0
 40
0.25000025
 50
270.0
 51
359.99994196
  0
LINE
  5
EA
  8
1
  6
CONTINUOUS
 62
     2
 10
-1.3768148399999991
 20
3.8871974900000001
 30
0.0
 11
-1.199614519999999
 21
3.8871974900000001
 31
0.0
  0
LINE
  5
EB
  8
1
  6
CONTINUOUS
 62
     2
 10
-0.94961452
 20
4.2309474900000001
 30
0.0
 11
-0.94961452
 21
4.1371974900000001
 31
0.0
  0
LINE
  5
EC
  8
1
  6
CONTINUOUS
 62
     2
 10
-0.94961452
 20
4.2309474900000001
 30
0.0
 11
-1.324614519999999
 21
4.2309474900000001
 31
0.0
  0
CIRCLE
  5
ED
  8
1
  6
CONTINUOUS
 62
     2
 10
-1.324614519999999
 20
4.0121974900000001
 30
0.0
 40
0.046875
  0
LINE
  5
EE
  8
1
  6
CONTINUOUS
 62
     4
 10
-1.433989519999999
 20
3.8232717499999991
 30
0.0
 11
-1.433989519999999
 21
3.8849487300000001
 31
0.0
  0
LINE
  5
EF
  8
1
  6
CONTINUOUS
 62
     4
 10
-1.215239519999999
 20
3.8232717499999991
 30
0.0
 11
-1.215239519999999
 21
3.8849487300000001
 31
0.0
  0
LINE
  5
F0
  8
1
  6
CONTINUOUS
 62
     4
 10
-0.24648952
 20
1.6357717499999991
 30
0.0
 11
-0.24648952
 21
1.1982717499999991
 31
0.0
  0
LINE
  5
F1
  8
1
  6
CONTINUOUS
 62
     4
 10
-2.402739519999999
 20
1.3857717499999991
 30
0.0
 11
-2.402739519999999
 21
1.1357717499999991
 31
0.0
  0
LINE
  5
F2
  8
1
  6
CONTINUOUS
 62
     4
 10
-2.402739519999999
 20
1.1357717499999991
 30
0.0
 11
-2.1612825400000002
 21
0.40968323
 31
0.0
  0
LINE
  5
F3
  8
1
  6
CONTINUOUS
 62
     4
 10
-2.277739519999999
 20
1.089299199999999
 30
0.0
 11
-2.027739519999999
 21
1.089299199999999
 31
0.0
  0
LINE
  5
F4
  8
1
  6
CONTINUOUS
 62
     4
 10
-2.027739519999999
 20
1.089299199999999
 30
0.0
 11
-2.027739519999999
 21
1.1982717499999991
 31
0.0
  0
LINE
  5
F5
  8
1
  6
CONTINUOUS
 62
     4
 10
-0.74648952
 20
1.2607717499999991
 30
0.0
 11
-0.74648952
 21
1.1982717499999991
 31
0.0
  0
LINE
  5
F6
  8
1
  6
CONTINUOUS
 62
     4
 10
-0.74648952
 20
1.1982717499999991
 30
0.0
 11
-0.24648952
 21
1.1982717499999991
 31
0.0
  0
LINE
  5
F7
  8
1
  6
CONTINUOUS
 62
     4
 10
-2.402739519999999
 20
1.1982717499999991
 30
0.0
 11
-1.902739519999999
 21
1.1982717499999991
 31
0.0
  0
LINE
  5
F8
  8
1
  6
CONTINUOUS
 62
     4
 10
-1.902739519999999
 20
1.1982717499999991
 30
0.0
 11
-1.902739519999999
 21
1.2607717499999991
 31
0.0
  0
LINE
  5
F9
  8
1
  6
CONTINUOUS
 62
     4
 10
-1.902739519999999
 20
1.2607717499999991
 30
0.0
 11
-0.74648952
 21
1.2607717499999991
 31
0.0
  0
LINE
  5
FA
  8
1
  6
CONTINUOUS
 62
     4
 10
-2.277739519999999
 20
1.089299199999999
 30
0.0
 11
-2.277739519999999
 21
1.1982717499999991
 31
0.0
  0
LINE
  5
FB
  8
1
  6
CONTINUOUS
 62
     4
 10
-2.2390356100000002
 20
1.1489925400000001
 30
0.0
 11
-2.0741834599999991
 21
1.1489925400000001
 31
0.0
  0
LINE
  5
FC
  8
1
  6
CONTINUOUS
 62
     4
 10
-0.62148952
 20
1.089299199999999
 30
0.0
 11
-0.37148952
 21
1.089299199999999
 31
0.0
  0
LINE
  5
FD
  8
1
  6
CONTINUOUS
 62
     4
 10
-0.37148952
 20
1.089299199999999
 30
0.0
 11
-0.37148952
 21
1.1982717499999991
 31
0.0
  0
LINE
  5
FE
  8
1
  6
CONTINUOUS
 62
     4
 10
-0.62148952
 20
1.089299199999999
 30
0.0
 11
-0.62148952
 21
1.1982717499999991
 31
0.0
  0
LINE
  5
FF
  8
1
  6
CONTINUOUS
 62
     4
 10
-0.58278561
 20
1.1489925400000001
 30
0.0
 11
-0.41793346
 21
1.1489925400000001
 31
0.0
  0
LINE
  5
100
  8
1
  6
CONTINUOUS
 62
     4
 10
-0.24648952
 20
1.1357717499999991
 30
0.0
 11
-0.4879484200000001
 21
0.40968323
 31
0.0
  0
LINE
  5
101
  8
1
  6
CONTINUOUS
 62
     4
 10
-0.74648952
 20
1.1982717499999991
 30
0.0
 11
-0.74648952
 21
1.2607717499999991
 31
0.0
  0
LINE
  5
102
  8
1
  6
CONTINUOUS
 62
     4
 10
-0.24648952
 20
1.1982717499999991
 30
0.0
 11
-0.24648952
 21
1.1357717499999991
 31
0.0
  0
LINE
  5
103
  8
1
  6
CONTINUOUS
 62
     4
 10
-2.027739519999999
 20
-0.23922825
 30
0.0
 11
-0.62148952
 21
-0.23922825
 31
0.0
  0
LINE
  5
104
  8
1
  6
CONTINUOUS
 62
     4
 10
-2.1612825400000002
 20
0.40968323
 30
0.0
 11
-2.027739519999999
 21
0.27636909
 31
0.0
  0
LINE
  5
105
  8
1
  6
CONTINUOUS
 62
     4
 10
-2.027739519999999
 20
0.27636909
 30
0.0
 11
-2.027739519999999
 21
-0.23922825
 31
0.0
  0
LINE
  5
106
  8
1
  6
CONTINUOUS
 62
     4
 10
-0.62148952
 20
-0.23922825
 30
0.0
 11
-0.62148952
 21
0.27636909
 31
0.0
  0
LINE
  5
107
  8
1
  6
CONTINUOUS
 62
     4
 10
-0.62148952
 20
0.27636909
 30
0.0
 11
-0.4879484200000001
 21
0.40968323
 31
0.0
  0
LINE
  5
108
  8
1
  6
CONTINUOUS
 62
     4
 10
-2.027739519999999
 20
0.26077175
 30
0.0
 11
-0.62148952
 21
0.26077175
 31
0.0
  0
LINE
  5
109
  8
1
  6
CONTINUOUS
 62
     4
 10
-2.1612825400000002
 20
0.40968323
 30
0.0
 11
-0.4879484200000001
 21
0.40968323
 31
0.0
  0
CIRCLE
  5
10A
  8
1
  6
CONTINUOUS
 62
     4
 10
-1.324614519999999
 20
2.8545217499999991
 30
0.0
 40
0.125
  0
CIRCLE
  5
10B
  8
1
  6
CONTINUOUS
 62
     4
 10
5.5629434599999987
 20
0.54202175
 30
0.0
 40
0.6875
  0
CIRCLE
  5
10C
  8
1
  6
CONTINUOUS
 62
     4
 10
5.5629434599999987
 20
0.54202175
 30
0.0
 40
0.46875
  0
LINE
  5
10D
  8
1
  6
CONTINUOUS
 62
     4
 10
4.8883008999999991
 20
0.40968323
 30
0.0
 11
4.7262763999999988
 21
0.40968323
 31
0.0
  0
LINE
  5
10E
  8
1
  6
CONTINUOUS
 62
     4
 10
6.2375860200000002
 20
0.40968323
 30
0.0
 11
6.3996105200000004
 21
0.40968323
 31
0.0
  0
LINE
  5
10F
  8
1
  6
CONTINUOUS
 62
     4
 10
4.9356040999999991
 20
0.26077175
 30
0.0
 11
4.8598184599999987
 21
0.26077175
 31
0.0
  0
LINE
  5
110
  8
1
  6
CONTINUOUS
 62
     4
 10
6.1902828200000002
 20
0.26077175
 30
0.0
 11
6.2660684599999987
 21
0.26077175
 31
0.0
  0
LINE
  5
111
  8
1
  6
CONTINUOUS
 62
     4
 10
4.5785684599999987
 20
0.8883619299999999
 30
0.0
 11
4.5785684599999987
 21
0.38318157
 31
0.0
  0
LINE
  5
112
  8
1
  6
CONTINUOUS
 62
     4
 10
4.5785684599999987
 20
0.38318157
 30
0.0
 11
4.7035684599999987
 21
0.38318157
 31
0.0
  0
LINE
  5
113
  8
1
  6
CONTINUOUS
 62
     4
 10
4.7035684599999987
 20
0.38318157
 30
0.0
 11
4.7035684599999987
 21
0.8883619299999999
 31
0.0
  0
LINE
  5
114
  8
1
  6
CONTINUOUS
 62
     4
 10
4.7035684599999987
 20
0.8883619299999999
 30
0.0
 11
4.5785684599999987
 21
0.8883619299999999
 31
0.0
  0
LINE
  5
115
  8
1
  6
CONTINUOUS
 62
     4
 10
4.5785684599999987
 20
0.85385609
 30
0.0
 11
4.4848184599999987
 21
1.1357717499999991
 31
0.0
  0
LINE
  5
116
  8
1
  6
CONTINUOUS
 62
     4
 10
4.5785684599999987
 20
0.7620668400000001
 30
0.0
 11
4.7035684599999987
 21
0.7620668400000001
 31
0.0
  0
LINE
  5
117
  8
1
  6
CONTINUOUS
 62
     4
 10
4.5785684599999987
 20
0.50947666
 30
0.0
 11
4.7035684599999987
 21
0.50947666
 31
0.0
  0
LINE
  5
118
  8
1
  6
CONTINUOUS
 62
     4
 10
4.9457492800000002
 20
0.8448867799999998
 30
0.0
 11
4.7035684599999987
 21
0.8448867799999998
 31
0.0
  0
LINE
  5
119
  8
1
  6
CONTINUOUS
 62
     4
 10
4.8851919199999987
 20
0.42665672
 30
0.0
 11
4.7035684599999987
 21
0.42665672
 31
0.0
  0
LINE
  5
11A
  8
1
  6
CONTINUOUS
 62
     4
 10
4.720631599999999
 20
0.42665672
 30
0.0
 11
4.7262763999999988
 21
0.40968323
 31
0.0
  0
LINE
  5
11B
  8
1
  6
CONTINUOUS
 62
     4
 10
4.760421749999999
 20
0.80765247
 30
0.0
 11
4.760421749999999
 21
0.46854305
 31
0.0
  0
LINE
  5
11C
  8
1
  6
CONTINUOUS
 62
     4
 10
4.8088855700000002
 20
0.80765247
 30
0.0
 11
4.8088855700000002
 21
0.46854305
 31
0.0
  0
LINE
  5
11D
  8
1
  6
CONTINUOUS
 62
     4
 10
4.8573494000000004
 20
0.80765247
 30
0.0
 11
4.8573494000000004
 21
0.46854305
 31
0.0
  0
LINE
  5
11E
  8
1
  6
CONTINUOUS
 62
     4
 10
4.9058132199999989
 20
0.80765247
 30
0.0
 11
4.9058132199999989
 21
0.74410152
 31
0.0
  0
ARC
  5
11F
  8
1
  6
CONTINUOUS
 62
     4
 10
2.9100074799999991
 20
1.28871281
 30
0.0
 40
0.11951192
 50
229.17881473
 51
310.82118527
  0
LINE
  5
120
  8
1
  6
CONTINUOUS
 62
     4
 10
2.8318824799999991
 20
1.1982717499999991
 30
0.0
 11
2.6756324799999991
 21
1.1982717499999991
 31
0.0
  0
LINE
  5
121
  8
1
  6
CONTINUOUS
 62
     4
 10
2.9881324799999991
 20
1.1982717499999991
 30
0.0
 11
3.1756324799999991
 21
1.1982717499999991
 31
0.0
  0
ARC
  5
122
  8
1
  6
CONTINUOUS
 62
     4
 10
2.9100074799999991
 20
-0.2046693
 30
0.0
 40
0.11951192
 50
49.178814729999999
 51
130.82118526999989
  0
LINE
  5
123
  8
1
  6
CONTINUOUS
 62
     4
 10
2.9881324799999991
 20
-0.11422825
 30
0.0
 11
3.1756324799999991
 21
-0.11422825
 31
0.0
  0
LINE
  5
124
  8
1
  6
CONTINUOUS
 62
     4
 10
2.8318824799999991
 20
-0.11422825
 30
0.0
 11
2.4667005500000001
 21
-0.11422825
 31
0.0
  0
LINE
  5
125
  8
1
  6
CONTINUOUS
 62
     4
 10
-3.1686115300000002
 20
1.6357717499999991
 30
0.0
 11
-5.3248615299999988
 21
1.6357717499999991
 31
0.0
  0
LINE
  5
126
  8
1
  6
CONTINUOUS
 62
     4
 10
-3.1686115300000002
 20
1.3857717499999991
 30
0.0
 11
-5.3248615299999988
 21
1.3857717499999991
 31
0.0
  0
LINE
  5
127
  8
1
  6
CONTINUOUS
 62
     4
 10
-3.1686115300000002
 20
1.3857717499999991
 30
0.0
 11
-3.1686115300000002
 21
1.6357717499999991
 31
0.0
  0
LINE
  5
128
  8
1
  6
CONTINUOUS
 62
     4
 10
-5.3248615299999988
 20
1.3857717499999991
 30
0.0
 11
-5.3248615299999988
 21
1.6357717499999991
 31
0.0
  0
LINE
  5
129
  8
1
  6
CONTINUOUS
 62
     4
 10
-5.3248615299999988
 20
1.6357717499999991
 30
0.0
 11
-4.8248615299999988
 21
1.6357717499999991
 31
0.0
  0
LINE
  5
12A
  8
1
  6
CONTINUOUS
 62
     4
 10
-4.8248615299999988
 20
1.6357717499999991
 30
0.0
 11
-4.8834323900000003
 21
1.7821998599999991
 31
0.0
  0
ARC
  5
12B
  8
1
  6
CONTINUOUS
 62
     4
 10
-4.8979403299999991
 20
1.77639594
 30
0.0
 40
0.01562581
 50
21.803922069999999
 51
90.0
  0
LINE
  5
12C
  8
1
  6
CONTINUOUS
 62
     4
 10
-4.897940639999999
 20
1.7920217499999991
 30
0.0
 11
-5.2517824199999987
 21
1.7920217499999991
 31
0.0
  0
ARC
  5
12D
  8
1
  6
CONTINUOUS
 62
     4
 10
-5.2517827199999987
 20
1.77639594
 30
0.0
 40
0.01562581
 50
90.0
 51
158.19607793
  0
LINE
  5
12E
  8
1
  6
CONTINUOUS
 62
     4
 10
-5.2662906600000001
 20
1.7821998599999991
 30
0.0
 11
-5.3248615299999988
 21
1.6357717499999991
 31
0.0
  0
LINE
  5
12F
  8
1
  6
CONTINUOUS
 62
     4
 10
-3.1686115300000002
 20
1.6357717499999991
 30
0.0
 11
-3.6686115300000002
 21
1.6357717499999991
 31
0.0
  0
LINE
  5
130
  8
1
  6
CONTINUOUS
 62
     4
 10
-3.6686115300000002
 20
1.6357717499999991
 30
0.0
 11
-3.6100406600000001
 21
1.7821998599999991
 31
0.0
  0
ARC
  5
131
  8
1
  6
CONTINUOUS
 62
     4
 10
-3.59553272
 20
1.77639594
 30
0.0
 40
0.01562581
 50
90.0
 51
158.19607793
  0
LINE
  5
132
  8
1
  6
CONTINUOUS
 62
     4
 10
-3.5955324200000001
 20
1.7920217499999991
 30
0.0
 11
-3.241690639999999
 21
1.7920217499999991
 31
0.0
  0
ARC
  5
133
  8
1
  6
CONTINUOUS
 62
     4
 10
-3.2416903299999991
 20
1.77639594
 30
0.0
 40
0.01562581
 50
21.803922069999999
 51
90.0
  0
LINE
  5
134
  8
1
  6
CONTINUOUS
 62
     4
 10
-3.227182389999999
 20
1.7821998599999991
 30
0.0
 11
-3.1686115300000002
 21
1.6357717499999991
 31
0.0
  0
LINE
  5
135
  8
1
  6
CONTINUOUS
 62
     4
 10
-3.5649185199999991
 20
1.7920217499999991
 30
0.0
 11
-3.61845112
 21
3.264178279999999
 31
0.0
  0
ARC
  5
136
  8
1
  6
CONTINUOUS
 62
     4
 10
-3.7121405499999991
 20
3.2607703599999991
 30
0.0
 40
0.09375139
 50
2.0831908700000001
 51
90.0
  0
LINE
  5
137
  8
1
  6
CONTINUOUS
 62
     4
 10
-3.7121391300000002
 20
3.3545217499999991
 30
0.0
 11
-4.7813339199999989
 21
3.3545217499999991
 31
0.0
  0
ARC
  5
138
  8
1
  6
CONTINUOUS
 62
     4
 10
-4.7813325100000004
 20
3.2607703599999991
 30
0.0
 40
0.09375139
 50
90.0
 51
177.9168091299999
  0
LINE
  5
139
  8
1
  6
CONTINUOUS
 62
     4
 10
-4.8750219299999991
 20
3.264178279999999
 30
0.0
 11
-4.9285545300000004
 21
1.7920217499999991
 31
0.0
  0
LINE
  5
13A
  8
1
  6
CONTINUOUS
 62
     4
 10
-3.9217367200000002
 20
3.3545217499999991
 30
0.0
 11
-3.9217367200000002
 21
3.6826467499999991
 31
0.0
  0
ARC
  5
13B
  8
1
  6
CONTINUOUS
 62
     4
 10
-3.9686107800000001
 20
3.68264769
 30
0.0
 40
0.04687406
 50
359.99885582000002
 51
450.0
  0
LINE
  5
13C
  8
1
  6
CONTINUOUS
 62
     4
 10
-3.9686117200000002
 20
3.7295217499999991
 30
0.0
 11
-4.5248613400000002
 21
3.7295217499999991
 31
0.0
  0
ARC
  5
13D
  8
1
  6
CONTINUOUS
 62
     4
 10
-4.524862269999999
 20
3.68264769
 30
0.0
 40
0.04687406
 50
90.0
 51
180.00114418000001
  0
LINE
  5
13E
  8
1
  6
CONTINUOUS
 62
     4
 10
-4.5717363400000002
 20
3.6826467499999991
 30
0.0
 11
-4.5717363400000002
 21
3.3545217499999991
 31
0.0
  0
LINE
  5
13F
  8
1
  6
CONTINUOUS
 62
     4
 10
-3.9217367200000002
 20
3.8232717499999991
 30
0.0
 11
-4.5717363400000002
 21
3.8232717499999991
 31
0.0
  0
LINE
  5
140
  8
1
  6
CONTINUOUS
 62
     4
 10
-3.9217367200000002
 20
3.7295217499999991
 30
0.0
 11
-4.5717363400000002
 21
3.7295217499999991
 31
0.0
  0
LINE
  5
141
  8
1
  6
CONTINUOUS
 62
     4
 10
-3.9217367200000002
 20
3.7295217499999991
 30
0.0
 11
-3.9217367200000002
 21
3.8232717499999991
 31
0.0
  0
LINE
  5
142
  8
1
  6
CONTINUOUS
 62
     4
 10
-4.5717363400000002
 20
3.8232717499999991
 30
0.0
 11
-4.5717363400000002
 21
3.7295217499999991
 31
0.0
  0
LINE
  5
143
  8
1
  6
CONTINUOUS
 62
     4
 10
-3.9217367200000002
 20
3.7763967499999991
 30
0.0
 11
-4.5717363400000002
 21
3.7763967499999991
 31
0.0
  0
ARC
  5
144
  8
1
  6
CONTINUOUS
 62
     2
 10
-3.3414071500000002
 20
2.5756174600000001
 30
0.0
 40
0.12499967
 50
179.99985079000001
 51
270.0
  0
ARC
  5
145
  8
1
  6
CONTINUOUS
 62
     2
 10
-4.1945372499999989
 20
3.159067059999999
 30
0.0
 40
0.7281304300000001
 50
0.00008207
 51
90.0
  0
LINE
  5
146
  8
1
  6
CONTINUOUS
 62
     2
 10
-3.4664068199999991
 20
2.575617789999999
 30
0.0
 11
-3.4664068199999991
 21
3.1590681100000002
 31
0.0
  0
LINE
  5
147
  8
1
  6
CONTINUOUS
 62
     2
 10
-3.3414068199999991
 20
2.450617789999999
 30
0.0
 11
-3.3414068199999991
 21
3.6488409000000002
 31
0.0
  0
ARC
  5
148
  8
1
  6
CONTINUOUS
 62
     2
 10
-3.466415969999999
 20
3.6488373099999989
 30
0.0
 40
0.12500915
 50
0.00164899
 51
44.99820179999999
  0
LINE
  5
149
  8
1
  6
CONTINUOUS
 62
     2
 10
-3.378018379999999
 20
3.7372293499999989
 30
0.0
 11
-3.835124969999999
 21
4.1943359400000002
 31
0.0
  0
ARC
  5
14A
  8
1
  6
CONTINUOUS
 62
     2
 10
-3.9235125800000001
 20
4.1059490399999987
 30
0.0
 40
0.12499845
 50
44.999767859999999
 51
90.0
  0
LINE
  5
14B
  8
1
  6
CONTINUOUS
 62
     2
 10
-3.9235134099999991
 20
4.2309474900000001
 30
0.0
 11
-4.6217365299999988
 21
4.2309474900000001
 31
0.0
  0
ARC
  5
14C
  8
1
  6
CONTINUOUS
 62
     2
 10
-4.3717379300000001
 20
4.1371960899999989
 30
0.0
 40
0.2499986
 50
179.99967827
 51
270.0
  0
LINE
  5
14D
  8
1
  6
CONTINUOUS
 62
     2
 10
-4.194536209999999
 20
3.8871974900000001
 30
0.0
 11
-4.3717365299999988
 21
3.8871974900000001
 31
0.0
  0
LINE
  5
14E
  8
1
  6
CONTINUOUS
 62
     2
 10
-4.6217365299999988
 20
4.2309474900000001
 30
0.0
 11
-4.6217365299999988
 21
4.1371974900000001
 31
0.0
  0
LINE
  5
14F
  8
1
  6
CONTINUOUS
 62
     2
 10
-4.6217365299999988
 20
4.2309474900000001
 30
0.0
 11
-4.2467365299999988
 21
4.2309474900000001
 31
0.0
  0
CIRCLE
  5
150
  8
1
  6
CONTINUOUS
 62
     2
 10
-4.2467365299999988
 20
4.0121974900000001
 30
0.0
 40
0.046875
  0
LINE
  5
151
  8
1
  6
CONTINUOUS
 62
     4
 10
-4.1373615299999988
 20
3.8232717499999991
 30
0.0
 11
-4.1373615299999988
 21
3.8849487300000001
 31
0.0
  0
LINE
  5
152
  8
1
  6
CONTINUOUS
 62
     4
 10
-4.3561115299999988
 20
3.8232717499999991
 30
0.0
 11
-4.3561115299999988
 21
3.8849487300000001
 31
0.0
  0
LINE
  5
153
  8
1
  6
CONTINUOUS
 62
     4
 10
-5.3248615299999988
 20
1.6357717499999991
 30
0.0
 11
-5.3248615299999988
 21
1.1982717499999991
 31
0.0
  0
LINE
  5
154
  8
1
  6
CONTINUOUS
 62
     4
 10
-3.5592355699999989
 20
-0.23922825
 30
0.0
 11
-4.9342365299999988
 21
-0.23922825
 31
0.0
  0
LINE
  5
155
  8
1
  6
CONTINUOUS
 62
     4
 10
-3.5592355699999989
 20
-0.23922825
 30
0.0
 11
-3.5592355699999989
 21
0.26077175
 31
0.0
  0
LINE
  5
156
  8
1
  6
CONTINUOUS
 62
     4
 10
-5.8248615299999988
 20
-0.11422825
 30
0.0
 11
-5.8248615299999988
 21
1.1982717499999991
 31
0.0
  0
ARC
  5
157
  8
1
  6
CONTINUOUS
 62
     4
 10
-5.12778723
 20
-0.32581472
 30
0.0
 40
0.21203559
 50
24.101740660000001
 51
86.794187609999994
  0
LINE
  5
158
  8
1
  6
CONTINUOUS
 62
     4
 10
-3.1686115300000002
 20
1.3857717499999991
 30
0.0
 11
-3.1686115300000002
 21
1.1357717499999991
 31
0.0
  0
LINE
  5
159
  8
1
  6
CONTINUOUS
 62
     4
 10
-3.1686115300000002
 20
1.1357717499999991
 30
0.0
 11
-3.4100694699999989
 21
0.40968323
 31
0.0
  0
LINE
  5
15A
  8
1
  6
CONTINUOUS
 62
     4
 10
-3.4100694699999989
 20
0.40968323
 30
0.0
 11
-3.5592355699999989
 21
0.26077175
 31
0.0
  0
LINE
  5
15B
  8
1
  6
CONTINUOUS
 62
     4
 10
-4.2467365299999988
 20
-0.23922825
 30
0.0
 11
-3.9342365300000002
 21
-0.23922825
 31
0.0
  0
LINE
  5
15C
  8
1
  6
CONTINUOUS
 62
     4
 10
-3.9342365300000002
 20
-0.23922825
 30
0.0
 11
-3.9342365300000002
 21
0.26077175
 31
0.0
  0
LINE
  5
15D
  8
1
  6
CONTINUOUS
 62
     4
 10
-3.9342365300000002
 20
0.26077175
 30
0.0
 11
-4.5592365299999988
 21
0.26077175
 31
0.0
  0
LINE
  5
15E
  8
1
  6
CONTINUOUS
 62
     4
 10
-4.5592365299999988
 20
0.26077175
 30
0.0
 11
-4.5592365299999988
 21
-0.23922825
 31
0.0
  0
LINE
  5
15F
  8
1
  6
CONTINUOUS
 62
     4
 10
-5.6373615299999988
 20
-0.11422825
 30
0.0
 11
-5.6373615299999988
 21
1.1982717499999991
 31
0.0
  0
LINE
  5
160
  8
1
  6
CONTINUOUS
 62
     4
 10
-5.4811115299999988
 20
-0.11422825
 30
0.0
 11
-5.4811115299999988
 21
1.1982717499999991
 31
0.0
  0
LINE
  5
161
  8
1
  6
CONTINUOUS
 62
     4
 10
-3.2936115300000002
 20
1.089299199999999
 30
0.0
 11
-3.5436115300000002
 21
1.089299199999999
 31
0.0
  0
LINE
  5
162
  8
1
  6
CONTINUOUS
 62
     4
 10
-3.5436115300000002
 20
1.089299199999999
 30
0.0
 11
-3.5436115300000002
 21
1.1982717499999991
 31
0.0
  0
LINE
  5
163
  8
1
  6
CONTINUOUS
 62
     4
 10
-4.8248615299999988
 20
1.2607717499999991
 30
0.0
 11
-4.8248615299999988
 21
1.1982717499999991
 31
0.0
  0
LINE
  5
164
  8
1
  6
CONTINUOUS
 62
     4
 10
-4.8248615299999988
 20
1.1982717499999991
 30
0.0
 11
-5.3248615299999988
 21
1.1982717499999991
 31
0.0
  0
LINE
  5
165
  8
1
  6
CONTINUOUS
 62
     4
 10
-3.1686115300000002
 20
1.1982717499999991
 30
0.0
 11
-3.6686115300000002
 21
1.1982717499999991
 31
0.0
  0
LINE
  5
166
  8
1
  6
CONTINUOUS
 62
     4
 10
-3.6686115300000002
 20
1.1982717499999991
 30
0.0
 11
-3.6686115300000002
 21
1.2607717499999991
 31
0.0
  0
LINE
  5
167
  8
1
  6
CONTINUOUS
 62
     4
 10
-3.6686115300000002
 20
1.2607717499999991
 30
0.0
 11
-4.8248615299999988
 21
1.2607717499999991
 31
0.0
  0
LINE
  5
168
  8
1
  6
CONTINUOUS
 62
     4
 10
-3.2936115300000002
 20
1.089299199999999
 30
0.0
 11
-3.2936115300000002
 21
1.1982717499999991
 31
0.0
  0
LINE
  5
169
  8
1
  6
CONTINUOUS
 62
     4
 10
-3.332315439999999
 20
1.1489925400000001
 30
0.0
 11
-3.4971675900000001
 21
1.1489925400000001
 31
0.0
  0
LINE
  5
16A
  8
1
  6
CONTINUOUS
 62
     4
 10
-4.9498615299999988
 20
1.089299199999999
 30
0.0
 11
-5.1998615299999988
 21
1.089299199999999
 31
0.0
  0
LINE
  5
16B
  8
1
  6
CONTINUOUS
 62
     4
 10
-5.1998615299999988
 20
1.089299199999999
 30
0.0
 11
-5.1998615299999988
 21
1.1982717499999991
 31
0.0
  0
LINE
  5
16C
  8
1
  6
CONTINUOUS
 62
     4
 10
-4.9498615299999988
 20
1.089299199999999
 30
0.0
 11
-4.9498615299999988
 21
1.1982717499999991
 31
0.0
  0
LINE
  5
16D
  8
1
  6
CONTINUOUS
 62
     4
 10
-4.9885654400000004
 20
1.1489925400000001
 30
0.0
 11
-5.1534175900000001
 21
1.1489925400000001
 31
0.0
  0
ARC
  5
16E
  8
1
  6
CONTINUOUS
 62
     4
 10
-5.5592365299999988
 20
1.28871281
 30
0.0
 40
0.11951192
 50
229.17881473
 51
310.82118527
  0
LINE
  5
16F
  8
1
  6
CONTINUOUS
 62
     4
 10
-5.4811115299999988
 20
1.1982717499999991
 30
0.0
 11
-5.3248615299999988
 21
1.1982717499999991
 31
0.0
  0
LINE
  5
170
  8
1
  6
CONTINUOUS
 62
     4
 10
-5.6373615299999988
 20
1.1982717499999991
 30
0.0
 11
-5.8248615299999988
 21
1.1982717499999991
 31
0.0
  0
ARC
  5
171
  8
1
  6
CONTINUOUS
 62
     4
 10
-5.5592365299999988
 20
-0.2046693
 30
0.0
 40
0.11951192
 50
49.178814729999999
 51
130.82118526999989
  0
LINE
  5
172
  8
1
  6
CONTINUOUS
 62
     4
 10
-5.6373615299999988
 20
-0.11422825
 30
0.0
 11
-5.8248615299999988
 21
-0.11422825
 31
0.0
  0
LINE
  5
173
  8
1
  6
CONTINUOUS
 62
     4
 10
-5.4811115299999988
 20
-0.11422825
 30
0.0
 11
-5.1159296000000003
 21
-0.11422825
 31
0.0
  0
TEXT
  5
174
  8
1
  6
CONTINUOUS
 62
     4
 10
-4.3930153799999987
 20
-0.12435722
 30
0.0
 40
0.25
  1
IN
 50
360.0
  7
MAIN
  0
CIRCLE
  5
175
  8
1
  6
CONTINUOUS
 62
     4
 10
0.76938248
 20
5.6762790699999988
 30
0.0
 40
0.25
  0
CIRCLE
  5
176
  8
1
  6
CONTINUOUS
 62
     4
 10
0.76938248
 20
5.6762790699999988
 30
0.0
 40
0.1875
  0
LINE
  5
177
  8
1
  6
CONTINUOUS
 62
     4
 10
0.74068356
 20
5.8170690499999989
 30
0.0
 11
0.8072509799999998
 21
5.8170690499999989
 31
0.0
  0
LINE
  5
178
  8
1
  6
CONTINUOUS
 62
     4
 10
0.6618042
 20
5.581029889999999
 30
0.0
 11
0.62852097
 21
5.6386795000000003
 31
0.0
  0
LINE
  5
179
  8
1
  6
CONTINUOUS
 62
     4
 10
0.9056596799999999
 20
5.6307382600000002
 30
0.0
 11
0.8723754899999999
 21
5.5730896000000003
 31
0.0
  0
LINE
  5
17A
  8
1
  6
CONTINUOUS
 62
     4
 10
0.62852097
 20
5.6386795000000003
 30
0.0
 11
0.6781826
 21
5.6673517200000001
 31
0.0
  0
ARC
  5
17B
  8
1
  6
CONTINUOUS
 62
     4
 10
0.61568605
 20
5.7756040100000003
 30
0.0
 40
0.1249975
 50
299.99883426000002
 51
360.00054773999989
  0
LINE
  5
17C
  8
1
  6
CONTINUOUS
 62
     4
 10
0.74068356
 20
5.7756052000000002
 30
0.0
 11
0.74068356
 21
5.8170690499999989
 31
0.0
  0
LINE
  5
17D
  8
1
  6
CONTINUOUS
 62
     4
 10
0.8072509799999998
 20
5.8170690499999989
 30
0.0
 11
0.8072509799999998
 21
5.7597236599999988
 31
0.0
  0
ARC
  5
17E
  8
1
  6
CONTINUOUS
 62
     4
 10
0.9322471799999998
 20
5.7597211699999988
 30
0.0
 40
0.1249962
 50
179.99885512
 51
240.0010057499999
  0
LINE
  5
17F
  8
1
  6
CONTINUOUS
 62
     4
 10
0.8697509799999998
 20
5.6514701799999987
 30
0.0
 11
0.9056596799999999
 21
5.6307382600000002
 31
0.0
  0
LINE
  5
180
  8
1
  6
CONTINUOUS
 62
     4
 10
0.8723754899999999
 20
5.5730896000000003
 30
0.0
 11
0.8227128999999999
 21
5.6017627699999988
 31
0.0
  0
ARC
  5
181
  8
1
  6
CONTINUOUS
 62
     4
 10
0.76021325
 20
5.49350863
 30
0.0
 40
0.12500066
 50
60.00035922
 51
120.0005150299999
  0
LINE
  5
182
  8
1
  6
CONTINUOUS
 62
     4
 10
0.6977119400000001
 20
5.6017618200000001
 30
0.0
 11
0.6618042
 21
5.581029889999999
 31
0.0
  0
CIRCLE
  5
183
  8
1
  6
CONTINUOUS
 62
     4
 10
2.4256324799999991
 20
5.6762790699999988
 30
0.0
 40
0.25
  0
CIRCLE
  5
184
  8
1
  6
CONTINUOUS
 62
     4
 10
2.4256324799999991
 20
5.6762790699999988
 30
0.0
 40
0.1875
  0
LINE
  5
185
  8
1
  6
CONTINUOUS
 62
     4
 10
2.4543314000000001
 20
5.8170690499999989
 30
0.0
 11
2.387763979999999
 21
5.8170690499999989
 31
0.0
  0
LINE
  5
186
  8
1
  6
CONTINUOUS
 62
     4
 10
2.533210749999999
 20
5.581029889999999
 30
0.0
 11
2.5664939900000001
 21
5.6386795000000003
 31
0.0
  0
LINE
  5
187
  8
1
  6
CONTINUOUS
 62
     4
 10
2.2893552800000001
 20
5.6307382600000002
 30
0.0
 11
2.322639469999999
 21
5.5730896000000003
 31
0.0
  0
LINE
  5
188
  8
1
  6
CONTINUOUS
 62
     4
 10
2.5664939900000001
 20
5.6386795000000003
 30
0.0
 11
2.5168323500000001
 21
5.6673517200000001
 31
0.0
  0
ARC
  5
189
  8
1
  6
CONTINUOUS
 62
     4
 10
2.5793289000000001
 20
5.7756040100000003
 30
0.0
 40
0.1249975
 50
179.99945226
 51
240.00116573999989
  0
LINE
  5
18A
  8
1
  6
CONTINUOUS
 62
     4
 10
2.4543314000000001
 20
5.7756052000000002
 30
0.0
 11
2.4543314000000001
 21
5.8170690499999989
 31
0.0
  0
LINE
  5
18B
  8
1
  6
CONTINUOUS
 62
     4
 10
2.387763979999999
 20
5.8170690499999989
 30
0.0
 11
2.387763979999999
 21
5.7597236599999988
 31
0.0
  0
ARC
  5
18C
  8
1
  6
CONTINUOUS
 62
     4
 10
2.262767779999999
 20
5.7597211699999988
 30
0.0
 40
0.1249962
 50
299.99899425000001
 51
360.00114488000003
  0
LINE
  5
18D
  8
1
  6
CONTINUOUS
 62
     4
 10
2.325263979999999
 20
5.6514701799999987
 30
0.0
 11
2.2893552800000001
 21
5.6307382600000002
 31
0.0
  0
LINE
  5
18E
  8
1
  6
CONTINUOUS
 62
     4
 10
2.322639469999999
 20
5.5730896000000003
 30
0.0
 11
2.3723020599999991
 21
5.6017627699999988
 31
0.0
  0
ARC
  5
18F
  8
1
  6
CONTINUOUS
 62
     4
 10
2.434801709999999
 20
5.49350863
 30
0.0
 40
0.12500066
 50
59.999484969999997
 51
119.99964077999999
  0
LINE
  5
190
  8
1
  6
CONTINUOUS
 62
     4
 10
2.4973030099999991
 20
5.6017618200000001
 30
0.0
 11
2.533210749999999
 21
5.581029889999999
 31
0.0
  0
LINE
  5
191
  8
1
  6
CONTINUOUS
 62
     4
 10
0.76938248
 20
5.4262790699999988
 30
0.0
 11
2.4700689300000001
 21
5.4262790699999988
 31
0.0
  0
CIRCLE
  5
192
  8
1
  6
CONTINUOUS
 62
     4
 10
0.76938248
 20
7.3325290699999988
 30
0.0
 40
0.25
  0
CIRCLE
  5
193
  8
1
  6
CONTINUOUS
 62
     4
 10
0.76938248
 20
7.3325290699999988
 30
0.0
 40
0.1875
  0
LINE
  5
194
  8
1
  6
CONTINUOUS
 62
     4
 10
0.74068356
 20
7.1917390799999987
 30
0.0
 11
0.8072509799999998
 21
7.1917390799999987
 31
0.0
  0
LINE
  5
195
  8
1
  6
CONTINUOUS
 62
     4
 10
0.6618042
 20
7.4277782400000003
 30
0.0
 11
0.62852097
 21
7.3701286299999991
 31
0.0
  0
LINE
  5
196
  8
1
  6
CONTINUOUS
 62
     4
 10
0.9056596799999999
 20
7.3780708300000004
 30
0.0
 11
0.8723754899999999
 21
7.435718539999999
 31
0.0
  0
LINE
  5
197
  8
1
  6
CONTINUOUS
 62
     4
 10
0.62852097
 20
7.3701286299999991
 30
0.0
 11
0.6781826
 21
7.3414573699999988
 31
0.0
  0
ARC
  5
198
  8
1
  6
CONTINUOUS
 62
     4
 10
0.6156829700000001
 20
7.2332032999999987
 30
0.0
 40
0.12500058
 50
359.99983081999989
 51
420.00035005000012
  0
LINE
  5
199
  8
1
  6
CONTINUOUS
 62
     4
 10
0.74068356
 20
7.23320293
 30
0.0
 11
0.74068356
 21
7.1917390799999987
 31
0.0
  0
LINE
  5
19A
  8
1
  6
CONTINUOUS
 62
     4
 10
0.8072509799999998
 20
7.1917390799999987
 30
0.0
 11
0.8072509799999998
 21
7.2490844699999988
 31
0.0
  0
ARC
  5
19B
  8
1
  6
CONTINUOUS
 62
     4
 10
0.9322502599999999
 20
7.2490851899999988
 30
0.0
 40
0.12499928
 50
119.9998099499999
 51
180.00032917999999
  0
LINE
  5
19C
  8
1
  6
CONTINUOUS
 62
     4
 10
0.8697509799999998
 20
7.3573379499999989
 30
0.0
 11
0.9056596799999999
 21
7.3780708300000004
 31
0.0
  0
LINE
  5
19D
  8
1
  6
CONTINUOUS
 62
     4
 10
0.8723754899999999
 20
7.435718539999999
 30
0.0
 11
0.8227128999999999
 21
7.4070453599999988
 31
0.0
  0
ARC
  5
19E
  8
1
  6
CONTINUOUS
 62
     4
 10
0.76021407
 20
7.5152964200000003
 30
0.0
 40
0.12499758
 50
239.99823215000001
 51
300.00001933999999
  0
LINE
  5
19F
  8
1
  6
CONTINUOUS
 62
     4
 10
0.6977119400000001
 20
7.4070472699999987
 30
0.0
 11
0.6618042
 21
7.4277782400000003
 31
0.0
  0
CIRCLE
  5
1A0
  8
1
  6
CONTINUOUS
 62
     4
 10
2.4256324799999991
 20
7.3325290699999988
 30
0.0
 40
0.25
  0
CIRCLE
  5
1A1
  8
1
  6
CONTINUOUS
 62
     4
 10
2.4256324799999991
 20
7.3325290699999988
 30
0.0
 40
0.1875
  0
LINE
  5
1A2
  8
1
  6
CONTINUOUS
 62
     4
 10
2.4543314000000001
 20
7.1917390799999987
 30
0.0
 11
2.387763979999999
 21
7.1917390799999987
 31
0.0
  0
LINE
  5
1A3
  8
1
  6
CONTINUOUS
 62
     4
 10
2.533210749999999
 20
7.4277782400000003
 30
0.0
 11
2.5664939900000001
 21
7.3701286299999991
 31
0.0
  0
LINE
  5
1A4
  8
1
  6
CONTINUOUS
 62
     4
 10
2.2893552800000001
 20
7.3780708300000004
 30
0.0
 11
2.322639469999999
 21
7.435718539999999
 31
0.0
  0
LINE
  5
1A5
  8
1
  6
CONTINUOUS
 62
     4
 10
2.5664939900000001
 20
7.3701286299999991
 30
0.0
 11
2.5168323500000001
 21
7.3414573699999988
 31
0.0
  0
ARC
  5
1A6
  8
1
  6
CONTINUOUS
 62
     4
 10
2.5793319800000001
 20
7.2332032999999987
 30
0.0
 40
0.12500058
 50
119.99964995000001
 51
180.00016918
  0
LINE
  5
1A7
  8
1
  6
CONTINUOUS
 62
     4
 10
2.4543314000000001
 20
7.23320293
 30
0.0
 11
2.4543314000000001
 21
7.1917390799999987
 31
0.0
  0
LINE
  5
1A8
  8
1
  6
CONTINUOUS
 62
     4
 10
2.387763979999999
 20
7.1917390799999987
 30
0.0
 11
2.387763979999999
 21
7.2490844699999988
 31
0.0
  0
ARC
  5
1A9
  8
1
  6
CONTINUOUS
 62
     4
 10
2.2627646999999991
 20
7.2490851899999988
 30
0.0
 40
0.12499928
 50
359.99967081999989
 51
420.00019005000001
  0
LINE
  5
1AA
  8
1
  6
CONTINUOUS
 62
     4
 10
2.325263979999999
 20
7.3573379499999989
 30
0.0
 11
2.2893552800000001
 21
7.3780708300000004
 31
0.0
  0
LINE
  5
1AB
  8
1
  6
CONTINUOUS
 62
     4
 10
2.322639469999999
 20
7.435718539999999
 30
0.0
 11
2.3723020599999991
 21
7.4070453599999988
 31
0.0
  0
ARC
  5
1AC
  8
1
  6
CONTINUOUS
 62
     4
 10
2.4348008800000001
 20
7.5152964200000003
 30
0.0
 40
0.12499758
 50
239.99998065999989
 51
300.00176785000002
  0
LINE
  5
1AD
  8
1
  6
CONTINUOUS
 62
     4
 10
2.4973030099999991
 20
7.4070472699999987
 30
0.0
 11
2.533210749999999
 21
7.4277782400000003
 31
0.0
  0
LINE
  5
1AE
  8
1
  6
CONTINUOUS
 62
     4
 10
0.76938248
 20
7.5825290699999988
 30
0.0
 11
2.4700689300000001
 21
7.5825290699999988
 31
0.0
  0
LINE
  5
1AF
  8
1
  6
CONTINUOUS
 62
     4
 10
2.6756324799999991
 20
5.7043323499999987
 30
0.0
 11
2.6756324799999991
 21
7.3483009299999988
 31
0.0
  0
LINE
  5
1B0
  8
1
  6
CONTINUOUS
 62
     4
 10
0.51938248
 20
5.6686553999999987
 30
0.0
 11
0.51938248
 21
7.3483009299999988
 31
0.0
  0
LINE
  5
1B1
  8
1
  6
CONTINUOUS
 62
     2
 10
1.9725074799999991
 20
6.3637790699999988
 30
0.0
 11
1.9725074799999991
 21
6.6450290699999988
 31
0.0
  0
LINE
  5
1B2
  8
1
  6
CONTINUOUS
 62
     2
 10
0.69217777
 20
6.3637790699999988
 30
0.0
 11
1.9725074799999991
 21
6.3637790699999988
 31
0.0
  0
LINE
  5
1B3
  8
1
  6
CONTINUOUS
 62
     2
 10
0.69217777
 20
6.3637790699999988
 30
0.0
 11
0.69217777
 21
6.6450290699999988
 31
0.0
  0
LINE
  5
1B4
  8
1
  6
CONTINUOUS
 62
     2
 10
0.69217777
 20
6.6450290699999988
 30
0.0
 11
1.9725074799999991
 21
6.6450290699999988
 31
0.0
  0
ARC
  5
1B5
  8
1
  6
CONTINUOUS
 62
     4
 10
1.5975071899999991
 20
6.5044040699999988
 30
0.0
 40
0.6874995900000001
 50
191.8028989
 51
528.19710110000005
  0
ARC
  5
1B6
  8
1
  6
CONTINUOUS
 62
     4
 10
1.5975075499999991
 20
6.5044040699999988
 30
0.0
 40
0.6250002900000001
 50
193.00287197
 51
526.99712803
  0
ARC
  5
1B7
  8
1
  6
CONTINUOUS
 62
     4
 10
1.5975074799999991
 20
6.504404619999999
 30
0.0
 40
0.32500036
 50
205.6386197299999
 51
334.36138026999993
  0
ARC
  5
1B8
  8
1
  6
CONTINUOUS
 62
     4
 10
1.5975074799999991
 20
6.5044035200000003
 30
0.0
 40
0.32500036
 50
25.638619729999991
 51
154.36138027000001
  0
LINE
  5
1B9
  8
1
  6
CONTINUOUS
 62
     4
 10
3.1756324799999991
 20
5.8700666400000001
 30
0.0
 11
3.1756324799999991
 21
7.1825666400000001
 31
0.0
  0
LINE
  5
1BA
  8
1
  6
CONTINUOUS
 62
     4
 10
2.9881324799999991
 20
5.8700666400000001
 30
0.0
 11
2.9881324799999991
 21
7.1825666400000001
 31
0.0
  0
LINE
  5
1BB
  8
1
  6
CONTINUOUS
 62
     4
 10
2.8318824799999991
 20
5.8700666400000001
 30
0.0
 11
2.8318824799999991
 21
7.1825666400000001
 31
0.0
  0
ARC
  5
1BC
  8
1
  6
CONTINUOUS
 62
     4
 10
2.9100074799999991
 20
7.2730076999999991
 30
0.0
 40
0.11951192
 50
229.17881473
 51
310.82118527
  0
LINE
  5
1BD
  8
1
  6
CONTINUOUS
 62
     4
 10
2.8318824799999991
 20
7.1825666400000001
 30
0.0
 11
2.6756324799999991
 21
7.1825666400000001
 31
0.0
  0
LINE
  5
1BE
  8
1
  6
CONTINUOUS
 62
     4
 10
2.9881324799999991
 20
7.1825666400000001
 30
0.0
 11
3.1756324799999991
 21
7.1825666400000001
 31
0.0
  0
ARC
  5
1BF
  8
1
  6
CONTINUOUS
 62
     4
 10
2.9100074799999991
 20
5.7796255900000002
 30
0.0
 40
0.11951192
 50
49.178814729999999
 51
130.82118526999989
  0
LINE
  5
1C0
  8
1
  6
CONTINUOUS
 62
     4
 10
2.9881324799999991
 20
5.8700666400000001
 30
0.0
 11
3.1756324799999991
 21
5.8700666400000001
 31
0.0
  0
LINE
  5
1C1
  8
1
  6
CONTINUOUS
 62
     4
 10
2.8318824799999991
 20
5.8700666400000001
 30
0.0
 11
2.6756324799999991
 21
5.8700666400000001
 31
0.0
  0
TEXT
  5
1C2
  8
1
  6
CONTINUOUS
 62
     4
 10
-1.5780739800000001
 20
-1.7932863199999991
 30
0.0
 40
0.5
  1
IHPRV-75
  7
MAIN
  0
TEXT
  5
1C3
  8
1
  6
CONTINUOUS
 62
     4
 10
-5.5070276299999987
 20
-2.506738659999999
 30
0.0
 40
0.5
  1
PRESSURE RELIEF VALVE 30PSI
  7
MAIN
  0
TEXT
  5
1C4
  8
1
  6
CONTINUOUS
 62
     4
 10
-3.65810776
 20
-3.256738659999999
 30
0.0
 40
0.5
  1
WATTS 174A MODEL M3
  7
MAIN
  0
TEXT
  5
1C5
  8
1
  6
CONTINUOUS
 62
     4
 10
-2.9647626900000001
 20
-4.006738659999999
 30
0.0
 40
0.5
  1
3/4" FPT IN & OUT
  7
MAIN
  0
LINE
  5
1C6
  8
1
  6
DOTD
 62
     4
 10
-5.8248615299999988
 20
0.54202175
 30
0.0
 11
-5.8248615299999988
 21
0.04202175
 31
0.0
  0
LINE
  5
1C7
  8
1
  6
DOTD
 62
     4
 10
-5.8248615299999988
 20
0.04202175
 30
0.0
 11
-5.3873615299999988
 21
0.04202175
 31
0.0
  0
LINE
  5
1C8
  8
1
  6
DOTD
 62
     4
 10
-5.3873615299999988
 20
0.04202175
 30
0.0
 11
-5.3873615299999988
 21
1.0420217499999991
 31
0.0
  0
LINE
  5
1C9
  8
1
  6
DOTD
 62
     4
 10
-5.3873615299999988
 20
1.0420217499999991
 30
0.0
 11
-5.8248615299999988
 21
1.0420217499999991
 31
0.0
  0
LINE
  5
1CA
  8
1
  6
DOTD
 62
     4
 10
-5.4654865299999988
 20
0.04202175
 30
0.0
 11
-5.4654865299999988
 21
1.0420217499999991
 31
0.0
  0
LINE
  5
1CB
  8
1
  6
DOTD
 62
     4
 10
-5.5436115299999988
 20
0.04202175
 30
0.0
 11
-5.5436115299999988
 21
1.0420217499999991
 31
0.0
  0
LINE
  5
1CC
  8
1
  6
DOTD
 62
     4
 10
-5.6217365299999988
 20
0.04202175
 30
0.0
 11
-5.6217365299999988
 21
1.0420217499999991
 31
0.0
  0
LINE
  5
1CD
  8
1
  6
DOTD
 62
     4
 10
-5.6998615299999988
 20
0.04202175
 30
0.0
 11
-5.6998615299999988
 21
1.0420217499999991
 31
0.0
  0
LINE
  5
1CE
  8
1
  6
DOTD
 62
     4
 10
-5.7779865299999988
 20
0.04202175
 30
0.0
 11
-5.7779865299999988
 21
1.0420217499999991
 31
0.0
  0
LINE
  5
1CF
  8
1
  6
DOTD
 62
     4
 10
-4.2467360499999991
 20
-0.23922825
 30
0.0
 11
-3.7467360499999991
 21
-0.23922825
 31
0.0
  0
LINE
  5
1D0
  8
1
  6
DOTD
 62
     4
 10
-3.7467360499999991
 20
-0.23922825
 30
0.0
 11
-3.7467360499999991
 21
0.19827175
 31
0.0
  0
LINE
  5
1D1
  8
1
  6
DOTD
 62
     4
 10
-3.7467360499999991
 20
0.19827175
 30
0.0
 11
-4.7467360499999991
 21
0.19827175
 31
0.0
  0
LINE
  5
1D2
  8
1
  6
DOTD
 62
     4
 10
-4.7467360499999991
 20
0.19827175
 30
0.0
 11
-4.7467360499999991
 21
-0.23922825
 31
0.0
  0
LINE
  5
1D3
  8
1
  6
DOTD
 62
     4
 10
-3.7467360499999991
 20
0.12014675
 30
0.0
 11
-4.7467360499999991
 21
0.12014675
 31
0.0
  0
LINE
  5
1D4
  8
1
  6
DOTD
 62
     4
 10
-3.7467360499999991
 20
0.04202175
 30
0.0
 11
-4.7467360499999991
 21
0.04202175
 31
0.0
  0
LINE
  5
1D5
  8
1
  6
DOTD
 62
     4
 10
-3.7467360499999991
 20
-0.03610325
 30
0.0
 11
-4.7467360499999991
 21
-0.03610325
 31
0.0
  0
LINE
  5
1D6
  8
1
  6
DOTD
 62
     4
 10
-3.7467360499999991
 20
-0.11422825
 30
0.0
 11
-4.7467360499999991
 21
-0.11422825
 31
0.0
  0
LINE
  5
1D7
  8
1
  6
DOTD
 62
     4
 10
-3.7467360499999991
 20
-0.19235325
 30
0.0
 11
-4.7467360499999991
 21
-0.19235325
 31
0.0
  0
ENDBLK
  5
1D8
  8
0
  0
ENDSEC
  0
SECTION
  2
ENTITIES
  0
INSERT
  5
29
  8
0
  6
CONTINUOUS
 62
     7
  2
IHPRV-75
 10
18.504774189999988
 20
15.88645161
 30
0.0
  0
ENDSEC
  0
EOF
